Oops, an error
Loading. Please wait.

Sailing Tab

version 1
version 1

Whole song

Interactive

50,671 views 33 this week
no commentswrite comment
1 2 3 4 5
accurate
x 6
add to favorites
launch autoscroll
font size
0
reset
how to read this tab
guitar tuner
Autoscroll
slow
fast
+/-
esc
set tempo
stop
Help us to improve Ultimate-Guitar.com Take our survey!
×
Author
This version need 2 or more aucustuc guitars.
  Guitar 1 and 3 can be Alt Guitars. (i'm not shoure what they are called in
english, but they are smallar then normal guitars)
Intro: guitar 2  only

e-----------------|--------------------|-----------------|------------|
B--0---0---0---0--|--1---1---1------1--|--0---0---0---0--|-1--1--1----|
G--0---0---0---0--|--0---0---0----0----|--0---0---0---0--|-0--0--0----|
D--0---0---0---0--|--2---2---2--2------|--0---0---0---0--|-2--2--2----|
A-----------------|--------------------|-----------------|------------|
E-----------------|--------------------|-----------------|------------|


                                                         e------------|
                                                         B------------|
                                     guitar 1 -->        G-------0--2-|
                                                         D------------|
                                                         A------------|
                                                         E------------|


    Guitar 1
e-------------0---3-|--5---5------5---3-|--3---1------1---0-|
B--1---1------------|-------------------|-------------------|
G-------------------|-------------------|-------------------|
D-------------------|-------------------|-------------------|
A-------------------|-------------------|-------------------|
E-------------------|-------------------|-------------------|
                    |                   |
 Guitar 2           |                   |
e-------------------|-------------------|-------------------|
B---0---0---0---0---|---0---0---0---0---|---1---1---1---1---|
G---0---0---0---0---|---0---0---0---0---|---0---0---0---0---|
D---0---0---0---0---|---2---2---2---2---|---2---2---2---2---|
A-------------------|-------------------|-------------------|
E-------------------|-------------------|-------------------|

_____________________________________________________________

  Guitar 1
e-0----------1---0--|-0-----------0-----|-------------------|
B-------------------|----3--3--------3--|--1--1-----------1-|
G-------------------|-------------------|--------------2----|
D-------------------|-------------------|-------------------|
A-------------------|-------------------|-------------------|
E-------------------|-------------------|-------------------|

 guitar 2
e-------------------|-------------------|-------------------|
B---0---0---0---0---|---2---2---2---2---|---0---0---0---0---|
G---0---0---0---0---|---2---2---2---2---|---0---0---0---0---|
D---0---0---0---0---|---2---2---2---2---|---2---2---2---2---|
A-------------------|-------------------|-------------------|
E-------------------|-------------------|-------------------|

_______________________________________________________________

  Guitar 1          ********************nr1
e-0-----------------|-------------------|-------------0--3--|
B----3---3-----3--1-|--1----------------|--1--1-------------|
G-------------------|-------------0--2--|-------------------|
D-------------------|-------------------|-------------------|
A-------------------|-------------------|-------------------|
E-------------------|-------------------|-------------------|
                    |*******************|nr1
  Guitar 2          |                   |
e-------------------|-------------------|-------------------|
B---0---0---0---1---|---0---0---0----0--|---0---0---0----0--|
G---0---0---0---0---|---0---0---0---0---|---0---0---0---0---|
D---0---0---0---0---|---0---0---0--0----|---2---2---2--2----|
A-------------------|-------------------|-------------------|
E-------------------|-------------------|-------------------|
                    |                   |
there the stars are does guitar 3 comes in
 Guitar 3 can play same as 1 at the begining....
                    |                   |
 Guitar 3           |                   |
                    |*******************|nr1
e-------------------|-------------------|-------------------|
B-------------------|-------------------|-------------1--0--|
G-------------------|-------------0-----|-------------------|
D-------------------|----------------3--|--2--2-------------|
A-------------------|-------------------|-------------------|
E-------------------|-------------------|-------------------|
                    *********************nr1
_____________________________________________________________

Guitar 1

e--5--5-------5--3--|--3--1-------1--0--|--0----------1--0--|
B-------------------|-------------------|-------------------|
G-------------------|-------------------|-------------------|
D-------------------|-------------------|-------------------|
A-------------------|-------------------|-------------------|
E-------------------|-------------------|-------------------|
                    |                   |
guitar 2            |                   |
e-------------------|-------------------|-------------------|
B---0---0---0----0--|---1---1---1----1--|---0---0---0----0--|
G---0---0---0---0---|---0---0---0---0---|---0---0---0---0---|
D---2---2---2--2----|---2---2---2--2----|---0---0---0--0----|
A-------------------|-------------------|-------------------|
E-------------------|-------------------|-------------------|
                    |                   |
guitar 3            |                   |
e-------------------|-------------------|-------------------|
B--1--1-------1-----|-------------------|-------------------|
G----------------0--|--2--2-------2--0--|--0----------2-----|
D-------------------|-------------------|----------------0--|
A-------------------|-------------------|-------------------|
E-------------------|-------------------|-------------------|


______________________________________________________________


Guitar 1
e--0----------0-----|-------------------|--0----------------|
B-----3--3-------3--|--1--1----------1--|-----3--3----3--1--|
G-------------------|-------------2-----|-------------------|
D-------------------|-------------------|-------------------|
A-------------------|-------------------|-------------------|
E-------------------|-------------------|-------------------|
                    |                   |
Guitar 2            |                   |
e-------------------|-------------------|-------------------|
B---2---2---2----2--|---0---0---0----0--|---1---1---1----1--|
G---2---2---2---2---|---0---0---0---0---|---0---0---0---0---|
D---2---2---2--2----|---2---2---2--2----|---2---2---2--2----|
A-------------------|-------------------|-------------------|
E-------------------|-------------------|-------------------|
                    |                   |
Guitar 3            |                   |
e-------------------|-------------------|-------------------|
B-------------------|-------------------|-------------------|
G-------------------|-------------2-----|-------------------|
D--4--4-------4--4--|--3--3----------0--|--3--3-------3--3--|
A-------------------|-------------------|-------------------|
E-------------------|-------------------|-------------------|


________________________________________________________________

here does guitar 2 take the melody in lower tunes and giutar 1 and 3
plays the comp.        |
                       V
Guitar 1       nr2  *********************
*********************
e-------------------|-------------------|-------------------|
B--1----------------|---1---1---1---1---|---1---1---1---1---|
G-------------------|-------------------|-------------------|
D-------------------|-------------------|-------------------|
A-------------------|-------------------|-------------------|
E-------------------|-------------------|-------------------|
                    |                   |
Guitar 2       nr2  |*******************|
*********************
e-------------------|-------------------|-------------------|
B---0---0---0-------|-------------------|-------------------|
G---0---0---0-------|----------------0--|--2--2-------2--0--|
D---0---0---0-------|-------------2-----|-------------------|
A----------------0--|--3--3-------------|-------------------|
E-------------3-----|-------------------|-------------------|
                    |                   |
Guitar 3       nr2  |*******************|
*********************
e-------------------|-------------------|-------------------|
B-------------------|-------------------|-------------------|
G-------------------|---0---0---0---0---|---2---2---2---2---|
D--2----------------|-------------------|-------------------|
A-------------------|-------------------|-------------------|
E-------------------|-------------------|-------------------|


________________________________________________________________

Guitar 1
e-------------------|-------------------|-------------------|
B---1---1---1---1---|---1---1---1---1---|-------------------|
G-------------------|-------------------|---2---2---2---2---|
D-------------------|-------------------|-------------------|
A-------------------|-------------------|-------------------|
E-------------------|-------------------|-------------------|
                    |                   |
Guitar 2            |                   |
e-------------------|-------------------|-------------------|
B-------------------|-------------------|-------------------|
G--0----------------|-------------------|-------------------|
D-----3-------3--2--|--2----------3--2--|--2--0--0----2--0--|
A-------------------|-------------------|-------------------|
E-------------------|-------------------|-------------------|
                    |                   |
Guitar 3            |                   |
e-------------------|-------------------|-------------------|
B-------------------|-------------------|-------------------|
G---2---2---2---2---|---0---0---0---0---|-------------------|
D-------------------|-------------------|---4---4---4---4---|
A-------------------|-------------------|-------------------|
E-------------------|-------------------|-------------------|


________________________________________________________________

After the last tact you start over agian after there the first stars are.
                               (*************** nr1)
and before when u reach (************ nr 2) second time jump over there
guitar 2 plays the melody and this and jump to the tact after this.

Guitar 1
e-------------------|-------------------|-------------------|
B-------------------|-----------1---1---|---1---1---1-------|
G---2---2---2---2---|---2---2-----------|---------------0-2-|
D-------------------|-------------------|-------------------|
A-------------------|-------------------|-------------------|
E-------------------|-------------------|-------------------|
                    |                   |
Guitar 2            |                   |
e-------------------|-------------------|-------------------|
B-------------------|-------------------|-------------------|
G-------------------|-------------------|-------------------|
D-------------------|--2--0--0----0-----|-------------------|
A--3--3-------0--3--|----------------3--|--3----------------|
E-------------------|-------------------|-------------------|
                    |                   |
Guitar 3            |                   |
e-------------------|-------------------|-------------------|
B-------------------|-------------------|-------------------|
G-------------------|-----------2---2---|---0---0---0---0---|
D---2---2---2---2---|---3---3-----------|-----------------3-|
A-------------------|-------------------|-------------------|
E-------------------|-------------------|-------------------|


________________________________________________________________


here: intsted of (************* nr2) second time.

Guitar 1
e-------------------|--0----------------|-------------------|
B--1-------------1--|-----3--3----3--1--|--1-------------1--|
G-------------2-----|-------------------|-------------2-----|
D-------------------|-------------------|-------------------|
A-------------------|-------------------|-------------------|
E-------------------|-------------------|-------------------|
                    |                   |
Guitar 2            |                   |
e-------------------|-------------------|-------------------|
B---0---0---0----0--|---1---1---1----1--|---0---0---0----0--|
G---0---0---0---0---|---0---0---0---0---|---0---0---0---0---|
D---0---0---0--0----|---2---2---2--2----|---0---0---0--0----|
A-------------------|-------------------|-------------------|
E-------------------|-------------------|-------------------|
                    |                   |
Guitar 3            |                   |
e-------------------|-------------------|-------------------|
B-------------------|-------------------|-------------------|
G-------------------|-------------------|-------------------|
D--2----------2--2--|--3--3-------3--3--|--2----------2--2--|
A-------------------|-------------------|-------------------|
E-------------------|-------------------|-------------------|


________________________________________________________________

Guitar 1             G        End
e--0----------------|-------------------|-------------------|
B-----3--3----3--1--|--1----------------|-------------------|
G-------------------|-------------------|-------------------|
D-------------------|-------------------|-------------------|
A-------------------|-------------------|-------------------|
E-------------------|-------------------|-------------------|
                    |                   |
Guitar 2            |                   |
e-------------------|-------------------|-------------------|
B---1---1---1-------|--0----------------|-------------------|
G---0---0---0-------|--0----------------|-------------------|
D---2---2---2-------|--0----------------|-------------------|
A-------------------|-------------------|-------------------|
E-------------------|-------------------|-------------------|
                    |                   |
Guitar 3            |                   |
e-------------------|-------------------|-------------------|
B-------------------|-------------------|-------------------|
G-------------------|-------------------|-------------------|
D--3--3-------3--3--|--2----------------|-------------------|
A-------------------|-------------------|-------------------|
E-------------------|-------------------|-------------------|


________________________________________________________________

Enjoy
Suggest correction
comments
print report bad tab
guest
You may want to rate the tab now too:
select rating
Wanna post a correction for this tab? Suggest correction