Oops, an error
Loading. Please wait.

Sailing Tab

version 2
version 2

Whole song

Interactive

10,628 views 6 this week
no commentswrite comment
1 2 3 4 5
please rate
add to favorites
launch autoscroll
font size
0
reset
how to read this tab
guitar tuner
Tab Pro tools
  • play this tab
  • loop segment
  • change instrument
  • show fretboard
  • metronome
×
Best way to learn
"Sailing"
Autoscroll
slow
fast
+/-
esc
set tempo
stop
Difficulty
novice
Intro: guitar 2  only

e-----------------|--------------------|-----------------|------------|
B--0---0---0---0--|--1---1---1------1--|--0---0---0---0--|-1--1--1----|
G--0---0---0---0--|--0---0---0----0----|--0---0---0---0--|-0--0--0----|
D--0---0---0---0--|--2---2---2--2------|--0---0---0---0--|-2--2--2----|
A-----------------|--------------------|-----------------|------------|
E-----------------|--------------------|-----------------|------------|

                                                           Guitar 1
                                                         e------------|
                                                         B------------|
                                                         G-------0--2-|
                                                         D------------|
                                                         A------------|
                                                         E------------|


    Guitar 1
e-------------0---3-|--5---5------5---3-|--3---1------1---0-|
B--1---1------------|-------------------|-------------------|
G-------------------|-------------------|-------------------|
D-------------------|-------------------|-------------------|
A-------------------|-------------------|-------------------|
E-------------------|-------------------|-------------------|
                    |                   |
 Guitar 2           |                   |
e-------------------|-------------------|-------------------|
B---0---0---0---0---|---0---0---0---0---|---1---1---1---1---|
G---0---0---0---0---|---0---0---0---0---|---0---0---0---0---|
D---0---0---0---0---|---2---2---2---2---|---2---2---2---2---|
A-------------------|-------------------|-------------------|
E-------------------|-------------------|-------------------|

_____________________________________________________________

  Guitar 1
e-0----------1---0--|-0-----------0-----|-------------------|
B-------------------|----3--3--------3--|--1--1-----------1-|
G-------------------|-------------------|--------------2----|
D-------------------|-------------------|-------------------|
A-------------------|-------------------|-------------------|
E-------------------|-------------------|-------------------|

 guitar 2
e-------------------|-------------------|-------------------|
B---0---0---0---0---|---2---2---2---2---|---0---0---0---0---|
G---0---0---0---0---|---2---2---2---2---|---0---0---0---0---|
D---0---0---0---0---|---2---2---2---2---|---2---2---2---2---|
A-------------------|-------------------|-------------------|
E-------------------|-------------------|-------------------|

_______________________________________________________________

  Guitar 1          
e-0-----------------|-------------------|-------------0--3--|
B----3---3-----3--1-|--1----------------|--1--1-------------|
G-------------------|-------------0--2--|-------------------|
D-------------------|-------------------|-------------------|
A-------------------|-------------------|-------------------|
E-------------------|-------------------|-------------------|
                    
  Guitar 2          |                   |
e-------------------|-------------------|-------------------|
B---0---0---0---1---|---0---0---0----0--|---0---0---0----0--|
G---0---0---0---0---|---0---0---0---0---|---0---0---0---0---|
D---0---0---0---0---|---0---0---0--0----|---2---2---2--2----|
A-------------------|-------------------|-------------------|
E-------------------|-------------------|-------------------|
                    |                   |
_____________________________________________________________

Guitar 1

e--5--5-------5--3--|--3--1-------1--0--|--0----------1--0--|
B-------------------|-------------------|-------------------|
G-------------------|-------------------|-------------------|
D-------------------|-------------------|-------------------|
A-------------------|-------------------|-------------------|
E-------------------|-------------------|-------------------|
                    |                   |
guitar 2            |                   |
e-------------------|-------------------|-------------------|
B---0---0---0----0--|---1---1---1----1--|---0---0---0----0--|
G---0---0---0---0---|---0---0---0---0---|---0---0---0---0---|
D---2---2---2--2----|---2---2---2--2----|---0---0---0--0----|
A-------------------|-------------------|-------------------|
E-------------------|-------------------|-------------------|
                    |                   |
______________________________________________________________


Guitar 1
e--0----------0-----|-------------------|--0----------------|
B-----3--3-------3--|--1--1----------1--|-----3--3----3--1--|
G-------------------|-------------2-----|-------------------|
D-------------------|-------------------|-------------------|
A-------------------|-------------------|-------------------|
E-------------------|-------------------|-------------------|
                    |                   |
Guitar 2            |                   |
e-------------------|-------------------|-------------------|
B---2---2---2----2--|---0---0---0----0--|---1---1---1----1--|
G---2---2---2---2---|---0---0---0---0---|---0---0---0---0---|
D---2---2---2--2----|---2---2---2--2----|---2---2---2--2----|
A-------------------|-------------------|-------------------|
E-------------------|-------------------|-------------------|
                    |                   |
________________________________________________________________


Guitar 1       
e-------------------|-------------------|-------------------|
B--1----------------|---1---1---1---1---|---1---1---1---1---|
G-------------------|-------------------|-------------------|
D-------------------|-------------------|-------------------|
A-------------------|-------------------|-------------------|
E-------------------|-------------------|-------------------|
                    |                   |
Guitar 2       
e-------------------|-------------------|-------------------|
B---0---0---0-------|-------------------|-------------------|
G---0---0---0-------|----------------0--|--2--2-------2--0--|
D---0---0---0-------|-------------2-----|-------------------|
A----------------0--|--3--3-------------|-------------------|
E-------------3-----|-------------------|-------------------|
                    |                   |
________________________________________________________________

Guitar 1
e-------------------|-------------------|-------------------|
B---1---1---1---1---|---1---1---1---1---|-------------------|
G-------------------|-------------------|---2---2---2---2---|
D-------------------|-------------------|-------------------|
A-------------------|-------------------|-------------------|
E-------------------|-------------------|-------------------|
                    |                   |
Guitar 2            |                   |
e-------------------|-------------------|-------------------|
B-------------------|-------------------|-------------------|
G--0----------------|-------------------|-------------------|
D-----3-------3--2--|--2----------3--2--|--2--0--0----2--0--|
A-------------------|-------------------|-------------------|
E-------------------|-------------------|-------------------|
                    |                   |
________________________________________________________________

  Guitar 1          
e-0-----------------|-------------------|-------------0--3--|
B----3---3-----3--1-|--1----------------|--1--1-------------|
G-------------------|-------------0--2--|-------------------|
D-------------------|-------------------|-------------------|
A-------------------|-------------------|-------------------|
E-------------------|-------------------|-------------------|
                    
  Guitar 2          |                   |
e-------------------|-------------------|-------------------|
B---0---0---0---1---|---0---0---0----0--|---0---0---0----0--|
G---0---0---0---0---|---0---0---0---0---|---0---0---0---0---|
D---0---0---0---0---|---0---0---0--0----|---2---2---2--2----|
A-------------------|-------------------|-------------------|
E-------------------|-------------------|-------------------|
                    |                   |
_____________________________________________________________

Guitar 1

e--5--5-------5--3--|--3--1-------1--0--|--0----------1--0--|
B-------------------|-------------------|-------------------|
G-------------------|-------------------|-------------------|
D-------------------|-------------------|-------------------|
A-------------------|-------------------|-------------------|
E-------------------|-------------------|-------------------|
                    |                   |
guitar 2            |                   |
e-------------------|-------------------|-------------------|
B---0---0---0----0--|---1---1---1----1--|---0---0---0----0--|
G---0---0---0---0---|---0---0---0---0---|---0---0---0---0---|
D---2---2---2--2----|---2---2---2--2----|---0---0---0--0----|
A-------------------|-------------------|-------------------|
E-------------------|-------------------|-------------------|
                    |                   |
______________________________________________________________


Guitar 1
e--0----------0-----|-------------------|--0----------------|
B-----3--3-------3--|--1--1----------1--|-----3--3----3--1--|
G-------------------|-------------2-----|-------------------|
D-------------------|-------------------|-------------------|
A-------------------|-------------------|-------------------|
E-------------------|-------------------|-------------------|
                    |                   |
Guitar 2            |                   |
e-------------------|-------------------|-------------------|
B---2---2---2----2--|---0---0---0----0--|---1---1---1----1--|
G---2---2---2---2---|---0---0---0---0---|---0---0---0---0---|
D---2---2---2--2----|---2---2---2--2----|---2---2---2--2----|
A-------------------|-------------------|-------------------|
E-------------------|-------------------|-------------------|
                    |                   |
________________________________________________________________


Guitar 1    
e-------------------|
B--1----------------|
G-------------------|
D-------------------|
A-------------------|
E-------------------|
                    |   
Guitar 2       

e-------------------|
B---0---0---0-------|
G---0---0---0-------|
D---0---0---0-------|
A----------------0--|
E-------------3-----|
_______________________________________________________________                 
Guitar 1
e-------------------|-------------------|-------------------|
B-------------------|-----------1---1---|---1---1---1-------|
G---2---2---2---2---|---2---2-----------|---------------0-2-|
D-------------------|-------------------|-------------------|
A-------------------|-------------------|-------------------|
E-------------------|-------------------|-------------------|
                    |                   |
Guitar 2            |                   |
e-------------------|-------------------|-------------------|
B-------------------|-------------------|-------------------|
G-------------------|-------------------|-------------------|
D-------------------|--2--0--0----0-----|-------------------|
A--3--3-------0--3--|----------------3--|--3----------------|
E-------------------|-------------------|-------------------|
                    |                   |
________________________________________________________________

Guitar 1
e-------------------|--0----------------|-------------------|
B--1-------------1--|-----3--3----3--1--|--1-------------1--|
G-------------2-----|-------------------|-------------2-----|
D-------------------|-------------------|-------------------|
A-------------------|-------------------|-------------------|
E-------------------|-------------------|-------------------|
                    |                   |
Guitar 2            |                   |
e-------------------|-------------------|-------------------|
B---0---0---0----0--|---1---1---1----1--|---0---0---0----0--|
G---0---0---0---0---|---0---0---0---0---|---0---0---0---0---|
D---0---0---0--0----|---2---2---2--2----|---0---0---0--0----|
A-------------------|-------------------|-------------------|
E-------------------|-------------------|-------------------|
                    |                   |
________________________________________________________________

Guitar 1             G        End
e--0----------------|-------------------|-------------------|
B-----3--3----3--1--|--1----------------|-------------------|
G-------------------|-------------------|-------------------|
D-------------------|-------------------|-------------------|
A-------------------|-------------------|-------------------|
E-------------------|-------------------|-------------------|
                    |                   |
Guitar 2            |                   |
e-------------------|-------------------|-------------------|
B---1---1---1-------|--0----------------|-------------------|
G---0---0---0-------|--0----------------|-------------------|
D---2---2---2-------|--0----------------|-------------------|
A-------------------|-------------------|-------------------|
E-------------------|-------------------|-------------------|
                    |                   |
Enjoy
comments
We did not receive enough feedback on this tab! Please rate:
print report bad tab
1 2 3 4 5
I want to post or [tab]
guest
You may want to rate the tab now too:
select rating
Please do not post tabs as comments. Select "correction" instead!