Oops, an error
Loading. Please wait.

Sailing Chords

version 6
version 6
114,269 views 195 this week
2 commentsread comments
1 2 3 4 5
excellent!
x 25
add to favorites
launch autoscroll
font size
0
reset
transpose
0
reset
simplify chords
- display chords -
guitar tuner
Tab Pro tools
  • play this tab
  • loop segment
  • change instrument
  • show fretboard
  • metronome
×
Best way to learn
"Sailing"
Autoscroll
slow
fast
+/-
esc
set tempo
stop
Contributor
e|-------------------------------------------------------------------------|
B|-------------------------------------------------------------------------|
G|-----0--1--------0--1--------0--1--------0--1------------3------------3--|
D|--1--------1--1--------1--1--------1--1--------1----- 3-----0------3-----|
A|---------------------------------------------------1------------1--------|
E|-------------------------------------------------------------------------|

e|-------------------------------------------------------------------------|
B|-------------------------------------------------------------------------|
G|-----------3-----------3--------0--1--------0--1--------0--1-------0--1--|
D|--0-----3-----0-----3-----0---1-------1--1--------1--1--------1--1------1|
A|-----------------1-------------------------------------------------------|
E|-----1-------------------------------------------------------------------|

e|-------------------------------------------------------------------------|
B|-------------------------------------------------------------------------|
G|--------3-----------3-----------3------------0---------------------------|
D|-----3-----0-----3-----0-----3-----0----3--------------------------------|
A|--1-----------1-----------1----------------------------------------------|
E|-------------------------------------------------------------------------|

                                          I    Am

      Bb            Gm
I am sailing, I am sailing,
       Eb              Bb
home again 'cross the sea.
      C7             Gm
I am sailing, stormy waters,
       Cm7             Bb              F7
to be near you, to be free.

      Bb           Gm
I am flying, I am flying,
        Eb             Bb
like a bird 'cross the sky.
      C7              Gm
I am flying, passing high clouds,
      Cm7              Bb              F7
to be with you, to be free.

         Bb               Gm
Can you hear me, can you hear me
           Eb               Bb
thro' the dark night, far away,
     C7             Gm
I am dying, forever trying,
       Cm                Bb            F7        
to be with you, who can say.

         Bb               Gm   
Can you hear me, can you hear me,
           Eb              Bb
thro' the dark night far away.
      C7             Gm
I am dying, forever trying,
       Cm               Bb             F7
to be with you, who can say.

        Bb              Gm
We are sailing, we are sailing,
       Eb             Bb
home again 'cross the sea.
        C7            Gm
We are sailing stormy waters,
       Cm              Bb
to be near you, to be free.

                Cm              Bb     F7
Oh Lord, to be near you, to be free.
                Cm              Bb     F7
Oh Lord, to be near you, to be free,
Gbmaj7    Bbmaj7
Oh         Lord.
comments
print report bad tab
2 comments total.
0 reply
CommanderBrave wrote on November 21 2008, 04:45 pm

the intro is in the wrong key i think

+1 reply
andreslrn wrote on August 6 2015, 04:10 pm

it seems to be half step lower than original but at least it's complete and correct with intro

I want to post or [tab]
guest
You may want to rate the tab now too:
select rating
Please do not post tabs as comments. Select "correction" instead!