Oops, an error
Loading. Please wait.

You Wear It Well Tab

version 1
version 1

Intro

Interactive

20,683 views 51 this week
2 commentsread comments
1 2 3 4 5
x 24
add to favorites
launch autoscroll
font size
0
reset
how to read this tab
guitar tuner
×
Best way to learn
"You Wear It Well"
Autoscroll
slow
fast
+/-
esc
set tempo
stop
Author
Difficulty
  follow
novice
SONG:   YOU WEAR IT WELL (INTRO)
ARTIST: ROD STEWART
TAB BY: DON CZARSKI
EMAIL:  GUITARZAN7@HOTMAIL.COM

                    YOU WEAR IT WELL (INTRO)
                          ROD STEWART


    D                Em                 Em D/F# G  A
E ---------------------------------------------------------------|
B --------------------------------------------------------4/6\4--|
G -------------------------------------------0-2-4-2/4\2--5/7\5--|
D ------0---0-0h2-0---2/4\2---2/4\2--0---2-4---------------------|
A --0h2---2---------2------------------2-------------------------|
E ---------------------------------------------------------------|
 

    D                Em                 Em D/F# G  A      D D
                                                                 
E --------------------------------------------------------2-2--|
B --------------------------------------------------------3-3--|
G -------------------------------------------0-2-4-2/4\2--2-2--|
D ------0---0-0h2-0---2h4p2---4p2--------2-4-------------------|
A --0h2---2---------2--------------2p0-------------------------|
E -------------------------------------2-----------------------|


Suggest correction
comments
print report bad tab
2 comments total.
0 reply
Beowolff 718 Jun 14, 2014 01:02 PM

Good job! Thanks!

0 reply
DON CZARSKI [tm] 25,406 Apr 13, 2015 03:34 PM

By the way, I have the entire chord tab of this song up now as well.... So if you like this intro then please go and see the full version and vote on that one as well.... Thanks

guest
You may want to rate the tab now too:
select rating
Wanna post a correction for this tab? Suggest correction