Oops, an error
Loading. Please wait.

Volle Lotte tab

64 views 3 this week
no commentswrite comment
1 2 3 4 5
3 more votes to show rating
add to favorites
×
Save as Personal and add changes to this tab that will be seen only by you. Learn more ›
×
You can save this tab as Personal to edit and correct it or add notes. All changes will be seen only by you. Learn more »
launch autoscroll
font size
0
reset
how to read this tab
guitar tuner
edit
Autoscroll
slow
fast
+/-
esc
set tempo
stop
Author
[Intro]
e|---2--2---2--2--2---2--2--2--2---2--2--|--2--2---2--2---2-----------------------------------------------|
e|---2--2---2--2--2---2--2--2--2---2--2--|--2--2---2--2---2-----------------------------------------------|
B|---2--2---3--3--3---2--2--2--2---3--3--|--2--2---3--3---2-----------------------------------------------|
G|---2--2---2--2--2---2--2--2--2---2--2--|--2--2---2--2---2-----------------------------------------------|
D|---2--2---4--4--4---2--2--2--2---4--4--|--2--2---4--4---2-----------------------------------------------|
A|---------------------------------------|----------------------------------------------------------------|
E|---------------------------------------|--------------------2--2--2--3--3--4--4-------------------------|

[Verse 1.1]
e|---2--2---2--2--2---2--2--2--2---2--2--|--2--2---2--2--2---2--2--2--2---2--2----------------------------|
B|---2--2---3--3--3---2--2--2--2---3--3--|--2--2---3--3--3---2--2--2--2---3--3----------------------------|
G|---2--2---2--2--2---2--2--2--2---2--2--|--2--2---2--2--2---2--2--2--2---2--2----------------------------|
D|---2--2---4--4--4---2--2--2--2---4--4--|--2--2---4--4--4---2--2--2--2---4--4----------------------------|
A|---------------------------------------|----------------------------------------------------------------|
E|---------------------------------------|----------------------------------------------------------------|

e|---5--5---5--5--5---5--5--5--5---5--5--|--2--2---2--2--2---2--------------------------------------------|
B|---5--5---6--6--6---5--5--5--5---6--6--|--2--2---3--3--3---2--------------------------------------------|
G|---5--5---5--5--5---5--5--5--5---5--5--|--2--2---2--2--2---2--------------------------------------------|
D|---5--5---7--7--7---5--5--5--5---7--7--|--2--2---4--4--4---2--------------------------------------------|
A|---------------------------------------|----------------------------------------------------------------|
E|---------------------------------------|-----------------------2--2--2--3--3--4--4----------------------|

[Verse 1.2]
e|---2--2---2--2--2---2--2--2--2---2--2--|--2--2---2--2--2---2--2--2--2---2--2----------------------------|
B|---2--2---3--3--3---2--2--2--2---3--3--|--2--2---3--3--3---2--2--2--2---3--3----------------------------|
G|---2--2---2--2--2---2--2--2--2---2--2--|--2--2---2--2--2---2--2--2--2---2--2----------------------------|
D|---2--2---4--4--4---2--2--2--2---4--4--|--2--2---4--4--4---2--2--2--2---4--4----------------------------|
A|---------------------------------------|----------------------------------------------------------------|
E|---------------------------------------|----------------------------------------------------------------|

e|---5--5---5--5--5---5--5--5--5---5--5--|--2--2---2--2--2---2--------------------------------------------|
B|---5--5---6--6--6---5--5--5--5---6--6--|--2--2---3--3--3---2--------------------------------------------|
G|---5--5---5--5--5---5--5--5--5---5--5--|--2--2---2--2--2---2--------------------------------------------|
D|---5--5---7--7--7---5--5--5--5---7--7--|--2--2---4--4--4---2--------------------------------------------|
A|---------------------------------------|----------------------------------------------------------------|
E|---------------------------------------|----------------------------------------------------------------|

[Pre-Chorus]
e|---2--2---2--2-----------------------------------------------------------------------------------------|
B|---3--3---2--2-----------------------------------------------------------------------------------------|
G|---2--2---2--2-----------------------------------------------------------------------------------------|(2x)
D|----------2--2---2--2--2--2--2--2--2-------------------------------------------------------------------|
A|-----------------2--2--2--2--2--2--2-------------------------------------------------------------------|
E|-------------------------------------------------------------------------------------------------------|
                     M  M     M  M

e|---2--2---2--2------------------------------------------------------------------------------------------|
B|---3--3---2--2------------------------------------------------------------------------------------------|
G|---2--2---2--2------------------------------------------------------------------------------------------|
D|----------2--2---2--2--2--------------------------------------------------------------------------------|
A|-----------------2--2--2---2--3--4--5-------------------------------------------------------------------|
E|----------------------------------------2--3--4--5------------------------------------------------------|
                     M  M

[Chorus]
e|---2--2-----------------2-------2--2-----------------2--------------------------------------------------|
B|---2--2-----------------3-------2--2-----------------3--------------------------------------------------|
G|---2--2---9--9----------2-------2--2---9--9----------2--------------------------------------------------|
D|---2--2---9--9---4--4-------2---2--2---9--9---4--4-------2----------------------------------------------|
A|----------7--7---4--4-------2----------7--7---4--4-------2----------------------------------------------|
E|-----------------2--2-------------------------2--2------------------------------------------------------|

[Pre-Verse]
e|---2--2---2--2--2---2-----------------------------------------------------------------------------------|
B|---2--2---3--3--3---2-----------------------------------------------------------------------------------|
G|---2--2---2--2--2---2-----------------------------------------------------------------------------------|
D|---2--2---4--4--4---2-----------------------------------------------------------------------------------|
A|--------------------------------------------------------------------------------------------------------|
E|------------------------2--2--2--3--3--4--4-------------------------------------------------------------|

[Verse 2.1]
e|---2--2---2--2--2---2--2--2--2---2--2--|--2--2---2--2--2---2--2--2--2---2--2----------------------------|
B|---2--2---3--3--3---2--2--2--2---3--3--|--2--2---3--3--3---2--2--2--2---3--3----------------------------|
G|---2--2---2--2--2---2--2--2--2---2--2--|--2--2---2--2--2---2--2--2--2---2--2----------------------------|
D|---2--2---4--4--4---2--2--2--2---4--4--|--2--2---4--4--4---2--2--2--2---4--4----------------------------|
A|---------------------------------------|----------------------------------------------------------------|
E|---------------------------------------|----------------------------------------------------------------|

e|---5--5---5--5--5---5--5--5--5---5--5--|--2--2---2--2--2---2--------------------------------------------|
B|---5--5---6--6--6---5--5--5--5---6--6--|--2--2---3--3--3---2--------------------------------------------|
G|---5--5---5--5--5---5--5--5--5---5--5--|--2--2---2--2--2---2--------------------------------------------|
D|---5--5---7--7--7---5--5--5--5---7--7--|--2--2---4--4--4---2--------------------------------------------|
A|---------------------------------------|----------------------------------------------------------------|
E|---------------------------------------|----------------------2--2--2--3--3--4--4-----------------------|

[Verse 2.2]
e|---2--2---2--2--2---2--2--2--2---2--2--|--2--2---2--2--2---2--2--2--2---2--2----------------------------|
B|---2--2---3--3--3---2--2--2--2---3--3--|--2--2---3--3--3---2--2--2--2---3--3----------------------------|
G|---2--2---2--2--2---2--2--2--2---2--2--|--2--2---2--2--2---2--2--2--2---2--2----------------------------|
D|---2--2---4--4--4---2--2--2--2---4--4--|--2--2---4--4--4---2--2--2--2---4--4----------------------------|
A|---------------------------------------|----------------------------------------------------------------|
E|---------------------------------------|----------------------------------------------------------------|

e|---5--5---5--5--5---5--5--5--5---5--5--|--2--2---2--2--2---2--------------------------------------------|
B|---5--5---6--6--6---5--5--5--5---6--6--|--2--2---3--3--3---2--------------------------------------------|
G|---5--5---5--5--5---5--5--5--5---5--5--|--2--2---2--2--2---2--------------------------------------------|
D|---5--5---7--7--7---5--5--5--5---7--7--|--2--2---4--4--4---2--------------------------------------------|
A|---------------------------------------|----------------------------------------------------------------|
E|---------------------------------------|----------------------------------------------------------------|

[Pre-Chorus]
e|---2--2---2--2-----------------------------------------------------------------------------------------|
B|---3--3---2--2-----------------------------------------------------------------------------------------|
G|---2--2---2--2-----------------------------------------------------------------------------------------|(2x)
D|----------2--2---2--2--2--2--2--2--2-------------------------------------------------------------------|
A|-----------------2--2--2--2--2--2--2-------------------------------------------------------------------|
E|-------------------------------------------------------------------------------------------------------|
                     M  M     M  M

e|---2--2---2--2------------------------------------------------------------------------------------------|
B|---3--3---2--2------------------------------------------------------------------------------------------|
G|---2--2---2--2------------------------------------------------------------------------------------------|
D|----------2--2---2--2--2--------------------------------------------------------------------------------|
A|-----------------2--2--2---2--3--4--5-------------------------------------------------------------------|
E|----------------------------------------2--3--4--5------------------------------------------------------|
                     M  M

[Chorus]
e|---2--2-----------------2-------2--2-----------------2--------------------------------------------------|
B|---2--2-----------------3-------2--2-----------------3--------------------------------------------------|
G|---2--2---9--9----------2-------2--2---9--9----------2--------------------------------------------------|
D|---2--2---9--9---4--4-------2---2--2---9--9---4--4-------2----------------------------------------------|
A|----------7--7---4--4-------2----------7--7---4--4-------2----------------------------------------------|
E|-----------------2--2-------------------------2--2------------------------------------------------------|

[Pre-Solo]
e|---------------------------------------------|----------------------------------------------------------|
B|---------------------------------------------|----------------------------------------------------------|
G|---4--4--4--4--4--4--4--4--4--4--4--4--4--4--|----------------------------------------------------------|
D|---4--4--4--4--4--4--4--4--4--4--4--4--4--4--|--4--4--4--4--4--4--4--4--4--4--4--4--4--4----------------|
A|---2--2--2--2--2--2--2--2--2--2--2--2--2--2--|--4--4--4--4--4--4--4--4--4--4--4--4--4--4----------------|
E|---------------------------------------------|--2--2--2--2--2--2--2--2--2--2--2--2--2--2----------------|

e|---2---2--2---2--2---2--2-------------------------------------------------------------------------------|
B|---3---2--2---3--3---2--2-------------------------------------------------------------------------------|
G|---2---2--2---2--2---2--2-------------------------------------------------------------------------------|
D|-------2--2----------2--2---2---------------------------------------------------------------------------|
A|----------------------------2---------------------------------------------------------------------------|
E|--------------------------------------------------------------------------------------------------------|

[Solo rhythm guitar]
e|---2--2---2--2-----------------------------------------------------------------------------------------|
B|---3--3---2--2-----------------------------------------------------------------------------------------|
G|---2--2---2--2-----------------------------------------------------------------------------------------|(5x)
D|----------2--2---2-------------------------------------------------------------------------------------|
A|-----------------2-------------------------------------------------------------------------------------|
E|-------------------------------------------------------------------------------------------------------|

e|-------------------------2--2---2--2-------------------------------------------------------------------|
B|-------------------------3--3---2--2-------------------------------------------------------------------|
G|-------------------------2--2---2--2-------------------------------------------------------------------|(3x)
D|---2--2--2--2--2--2--2----------2--2-------------------------------------------------------------------|
A|---2--2--2--2--2--2--2---------------------------------------------------------------------------------|
E|-------------------------------------------------------------------------------------------------------|
       M  M     M  M

e|--------------------------------------------------------------------------------------------------------|
B|--------------------------------------------------------------------------------------------------------|
G|--------------------------------------------------------------------------------------------------------|
D|---2--2--2----------------------------------------------------------------------------------------------|
A|---2--2--2---2--3--4--5---------------------------------------------------------------------------------|
E|--------------------------2--3--4--5--------------------------------------------------------------------|
    M  M

[Chorus]
e|---2--2-----------------2-------2--2-----------------2--------------------------------------------------|
B|---2--2-----------------3-------2--2-----------------3--------------------------------------------------|
G|---2--2---9--9----------2-------2--2---9--9----------2--------------------------------------------------|
D|---2--2---9--9---4--4-------2---2--2---9--9---4--4-------2----------------------------------------------|
A|----------7--7---4--4-------2----------7--7---4--4-------2----------------------------------------------|
E|-----------------2--2-------------------------2--2------------------------------------------------------|

[Post-Chorus]
e|---------------------------------------------|----------------------------------------------------------|
B|---------------------------------------------|----------------------------------------------------------|
G|---4--4--4--4--4--4--4--4--4--4--4--4--4--4--|----------------------------------------------------------|
D|---4--4--4--4--4--4--4--4--4--4--4--4--4--4--|--4--4--4--4--4--4--4--4--4--4--4--4--4--4----------------|
A|---2--2--2--2--2--2--2--2--2--2--2--2--2--2--|--4--4--4--4--4--4--4--4--4--4--4--4--4--4----------------|
E|---------------------------------------------|--2--2--2--2--2--2--2--2--2--2--2--2--2--2----------------|

e|---2--2---2--2---2--2--2--2---2--2--|--2--2---2--2------------------------------------------------------|
B|---3--3---2--2---3--3--3--3---2--2--|--3--3---2--2------------------------------------------------------|
G|---2--2---2--2---2--2--2--2---2--2--|--2--2---2--2------------------------------------------------------|
D|----------2--2----------------2--2--|---------2--2---4--4---2--2----------------------------------------|
A|------------------------------------|----------------4--4---2--2----------------------------------------|
E|------------------------------------|----------------2--2-----------------------------------------------|

[Pre-Chorus]
e|--------------------------------------------------------------------------------------------------------|
B|--------------------------------------------------------------------------------------------------------|
G|--------------------------------------------------------------------------------------------------------|
D|--------------------------------------------------------------------------------------------------------|
A|---2--3--4--5-------------------------------------------------------------------------------------------|
E|----------------2--3--4--5------------------------------------------------------------------------------|
   
[Chorus]
e|---2--2-----------------2-------2--2-----------------2--------------------------------------------------|
B|---2--2-----------------3-------2--2-----------------3--------------------------------------------------|
G|---2--2---9--9----------2-------2--2---9--9----------2--------------------------------------------------|
D|---2--2---9--9---4--4-------2---2--2---9--9---4--4-------2----------------------------------------------|
A|----------7--7---4--4-------2----------7--7---4--4-------2----------------------------------------------|
E|-----------------2--2-------------------------2--2------------------------------------------------------|

[Outro]
e|---2--2---2--2--2---2--2--2--2---2--2--|--2--2---2--2--2---2--2--2--2---2--2----------------------------|
B|---2--2---3--3--3---2--2--2--2---3--3--|--2--2---3--3--3---2--2--2--2---3--3----------------------------|
G|---2--2---2--2--2---2--2--2--2---2--2--|--2--2---2--2--2---2--2--2--2---2--2----------------------------|
D|---2--2---4--4--4---2--2--2--2---4--4--|--2--2---4--4--4---2--2--2--2---4--4----------------------------|
A|---------------------------------------|----------------------------------------------------------------|
E|---------------------------------------|----------------------------------------------------------------|

e|---5--5---5--5--5---5--5--5--5---5--5--|--2--2---2--2--2---2--2--2--2---2---2--------------------------|
B|---5--5---6--6--6---5--5--5--5---6--6--|--2--2---3--3--3---2--2--2--2---3---2--------------------------|
G|---5--5---5--5--5---5--5--5--5---5--5--|--2--2---2--2--2---2--2--2--2---2---2--------------------------|(3x)
D|---5--5---7--7--7---5--5--5--5---7--7--|--2--2---4--4--4---2--2--2--2---4---2--------------------------|
A|---------------------------------------|---------------------------------------------------------------|
E|---------------------------------------|---------------------------------------------------------------|

            
            
Suggest correction
Creating personal tab
Creating personal tab
You can edit any tab online and save it as your Personal.

You can edit, replace or remove any tab part or add personal notes – all changes will be seen only by you.

Personal tabs can be accessed anytime from any device, even offline.
Learn more »
Give kudos to tab author, rate the tab!
1 2 3 4 5
comments
print report bad tab
guest
You may want to rate the tab now too:
select rating
Wanna post a correction for this tab? Suggest correction