Oops, an error
Loading. Please wait.

Take A Back Road bass

421 views 3 this week
no commentswrite comment
1 2 3 4 5
3 more votes to show rating
add to favorites
×
Save as Personal and add changes to this tab that will be seen only by you. Learn more ›
×
You can save this tab as Personal to edit and correct it or add notes. All changes will be seen only by you. Learn more »
launch autoscroll
font size
0
reset
guitar tuner
edit
Autoscroll
slow
fast
+/-
esc
set tempo
stop
-----------------------------------------------------------------------------
                             Take A Back Road - Rodney Atkins
-----------------------------------------------------------------------------

Tabbed by: Country Bass
E-mail: aaron.white8@education.nsw.gov.au

Tuning: Standard

I've tabbed this song how it is played on version from the 'Take A Back Road' album. If
the tab gets
confusing the song is simply just D, A, G, A. So if the tab's confusing just listen to the
song for the
parts where it stops and go with the groove.


bass comes in after the short guitar intro
The Playing Order is at the bottom of the page

Intro:
G|---------------------------------------------------|
D|---------------------------------------------------|
A|--5--5--5-5-5--------------------------------------|
E|--------------5--5--5-5-5-3--3--3-3-3-5--5--5-5-5--|

Verse 1:

G|---------------------------------------------------|
D|---------------------------------------------------|
A|--5--5----5-5--------------------------------------|
E|--------------5--5----5-5-3--3----3-3-5--5----5-5--|

G|---------------------------------------------------|
D|---------------------------------------------------|
A|--5--5--5-5-5--------------------------------------|
E|--------------5--5--5-5-5-3--3--3-3-3-5--5----5-5--|

Chorus:

G|---------------------------------------------------|
D|---------------------------------------------------|
A|--5--5--5-5-5--------------------------------------|
E|--------------5--5--5-5-5-3--3--3-3-3-5--5--5-5-5--|

G|--------------------------------------------------------|
D|--------------------------------------------------------|
A|--5--5--5-5-5-------------------------------------------|
E|--------------5--5--5-5-5-3--3--5--5---5--5--5-5-5------|

Verse 2:

G|---------------------------------------------------|
D|---------------------------------------------------|
A|--5--5--5-5-5--------------------------------------|
E|--------------5--5--5-5-5-3--3--3-3-3-5------------|

G|---------------------------------------------------|
D|---------------------------------------------------|
A|--5--5--5-5-5--------------------------------------|
E|--------------5--5--5-5-5-3--3--3-3-3-5--5--5-5-5--|

Intro played one between Chorus 2 and Bridge

Bridge: "Maybe it's the feelin'..."

G|----------------------------|
D|----------------------------|
A|--5----7-------------5------|
E|---------5----7-3------5----|

Chorus 3:

-No bass for one chord progression-

G|---------------------------------------------------|
D|---------------------------------------------------|
A|--5--5--5-5-5--------------------------------------|
E|--------------5--5--5-5-5-3--3--3-3-3-5--5--5-5-5--|

Playing Order:

Intro
Verse 1
Chorus
Intro
Verse 2
Chorus
Intro
Bridge
Chorus 3
Intro x2

then end on a D (5th fret A string)


I hope this is of help


| /  slide up
| \  slide down
| h  hammer-on
| p  pull-off
| ~  vibrato
| +  harmonic
| x  Mute note
=============================================================================
Suggest correction
Creating personal tab
Creating personal tab
You can edit any tab online and save it as your Personal.

You can edit, replace or remove any tab part or add personal notes – all changes will be seen only by you.

Personal tabs can be accessed anytime from any device, even offline.
Learn more »
Give kudos to tab author, rate the tab!
1 2 3 4 5
comments
print report bad tab
guest
You may want to rate the tab now too:
select rating
Wanna post a correction for this tab? Suggest correction