Oops, an error
Loading. Please wait.

Narcos Prologue Song Ukulele Chords

1,912 views 117 this week
no commentswrite comment
1 2 3 4 5
1 last vote to show rating
add to favorites
launch autoscroll
font size
0
reset
transpose
0
reset
simplify chords
display chords
guitar tuner
×
Best way to learn
"Narcos Prologue Song"
Autoscroll
slow
fast
+/-
esc
set tempo
stop
Author
Difficulty
  follow
intermediate
About this tab version
Ukulele version with tabs and chords. Was this info helpful? Yes No
Strumming Is this strumming pattern correct? Yes No
Chords 120 bpm
1
&
2
&
3
&
Listen
G|-11-10-9-----------h----------|
C|---------12-11-9--9-11--------|
E|------------------------8-----|
A|------------------------------|

G|-12-11-10-9---------h---------|
C|------------12-11--11-12--9-9-|
E|------------------------------|
A|------------------------------|

G|-11-10-9-----------h----------|
C|---------12-11-9--9-11--9-8---|
E|------------------------------|
A|------------------------------|

G|-----------------------9------|
C|-8-9-11--------9-11-12--------|
E|------------------------------|
A|------------------------------|

G|-12-11-9----12--11------------|
C|------------------------------|
E|------------------------------|
A|------------------------------|

[Verse]
C#m              F#m
Soy el fuego que arde tu piel
G#7             C#m
Soy el agua que mata tu sed
C#m             F#m
El castillo, la torre yo soy
G#7           C#m
La espada que guarda el caudal


C#7            F#m
Tú el aire que respiro yo
B7             E
Y la luz de la luna en el mar
A               F#m
La garganta que ansío mojar
G#7      C#m
Que temo ahogar de amor


A7        G#7      
¿Y cuáles deseos me vas a dar?
A7                 G#7
Dices tú, "Mi tesoro basta con mirarlo
C#m      A 
Tuyo será  
         G#7
y tuyo será.
C#m - A - G#7
Suggest correction
Give kudos to tab author, rate the tab!
1 2 3 4 5
comments
print report bad tab
guest
You may want to rate the tab now too:
select rating
Wanna post a correction for this tab? Suggest correction