Oops, an error
Loading. Please wait.

Tuyo chords

version 2
version 2

Whole song

  • This version is with some differents chords for advanced players.
  • Because it's simpler and more complete than the others if you compare.
  • The other versions don't use the diminished chords, which Amarante is using.
  • These chords are based on the tabs of this video: ... Show more

Interactive

96,766 views 1,302 this week
9 commentsread comments
1 2 3 4 5
x 196
add to favorites
×
Save as Personal and add changes to this tab that will be seen only by you. Learn more ›
×
You can save this tab as Personal to edit and correct it or add notes. All changes will be seen only by you. Learn more »
launch autoscroll
font size
0
reset
transpose
0
reset
simplify chords
display chords
guitar tuner
edit
Autoscroll
slow
fast
+/-
esc
set tempo
stop
Author
Strumming
There is no strumming pattern for this song yet. and get +5 IQ
I. [Intro]

Guitar I plays the following tab.
Guitar II plays the chords mentioned above the tab.

   C#m                F#m
E|-16-15-14---------------------17-|
B|----------17-16-14-14h16---------|
G|-------------------------13-13---|
D|---------------------------------|
A|---------------------------------|
E|---------------------------------|

  G#7             C#m
E|16-15-14---------------------|
B|---------17-16-16h17-14--14--|
G|-----------------------------|
D|-----------------------------|
A|-----------------------------|
E|-----------------------------|

   C#m                F#m
E|-16-15-14-----------------------|
B|----------17-16-14-14h16-14-13--|
G|--------------------------------|
D|--------------------------------|
A|--------------------------------|
E|--------------------------------|

   G#7        C#m         G#7         (C#m)
E|---------------------14-17-16-14-17-16~----|
B|-13-14-16---14-16-17-----------------------|
G|-------------------------------------------|
D|-------------------------------------------|
A|-------------------------------------------|
E|-------------------------------------------|


II. [Lyrics part] (just chords)

C#m              F#m
Soy el fuego que arde tu piel
G#7             C#m
Soy el agua que mata tu sed
C#m             F#m
El castillo, la torre yo soy
G#7             C#m       
La espada que guarda el caudal

C#7             F#m
Tu el aire que respiro yo
B7           E
Y la luz de la luna en el mar
Amaj7               F#m
La garganta que ancio mojar
G#7                 C#m
Que temo ahogar de amor
F#m                  G#7
Y cuales deseos me vas a dar?
F#m             G#7
Dices tu, "Mi tesoro basta con mirarlo
C#m       G#7      C#m
Tuyo sera, y tuyo sera"



************************************

| h  Hammer-on
| ~  Vibrato

************************************

            
            
Suggest correction
Creating personal tab
Creating personal tab
You can edit any tab online and save it as your Personal.

You can edit, replace or remove any tab part or add personal notes – all changes will be seen only by you.

Personal tabs can be accessed anytime from any device, even offline.
Learn more »
comments
print report bad tab
9 comments total. Showing first comments.
+1 reply
animation.anim1 10 Apr 18, 2017 02:06 PM

👍

+1 reply
robbierob1992 10 Aug 30, 2017 05:51 PM

its perfect! sounds right on point

0 reply
FlameGame 203 Aug 31, 2017 04:41 PM

Thanks! :)

guest
You may want to rate the tab now too:
select rating
Wanna post a correction for this tab? Suggest correction