Oops, an error
Loading. Please wait.

Tuyo chords

version 4
version 4

Whole song

  • This version is with some differents chords for advanced players.
  • Because it's simpler and more complete than the others if you compare.
  • The other versions don't use the diminished chords, which Amarante is using.
  • These chords are based on the tabs of this video: ... Show more

Interactive

11,936 views 165 this week
1 commentread comment
1 2 3 4 5
x 3
add to favorites
×
Save as Personal and add changes to this tab that will be seen only by you. Learn more ›
×
You can save this tab as Personal to edit and correct it or add notes. All changes will be seen only by you. Learn more »
launch autoscroll
font size
0
reset
transpose
0
reset
simplify chords
display chords
guitar tuner
edit
Autoscroll
slow
fast
+/-
esc
set tempo
stop
Author
Difficulty
Strumming
There is no strumming pattern for this song yet. and get +5 IQ
Tuyo - Rodrigo Amarante & Narcos Theme song

***Watch my guitar tutorial of this song here*** : 

https://www.youtube.com/watch?v=Q1bMlAGFlY0


Note : Whenever you see D#m7b5 chord, you can switch with the F#m and vice versa. 
Here's how I play the D#m7b5 : x6767x 
Here's how to play AMaj7 : 5x665x


[Intro]
C#mF#mG#7C#mA G#7 C#m (C#m on the first beat only)

[Verse]
C#m               D#m7b5          
Soy el fuego que arde tu piel
G#7              C#m          
Soy el agua que mata tu sed
C#m              D#m7b5
El castillo, la torre yo soy
G#7             C#m                     
La espada que guarda el caudal
C#7             D#m7b5
Tu el aire que respiro yo
B7              E                   
Y la luz de la luna en el mar
A            D#m7b5                            
La garganta que ansio mojar
G#7           C#m
Que temo-ahogaaarrrrr    de     amor

[Bridge]

Amaj7    Amaj7     G#7    G#7
Y cuales deseos me vas adar Oooooh 
Amaj7           Maj7          G#7
 dis estu Mi tesoro basta   con mirarlo ooh  y Tuyo
  C#m   A   G#7        C#m       A   G#7 
 sera,         y tuyo sera

[Outro]
C#m     A G#7 (End fade away/ralentendo)


[Solo]

E|--16-15-14----------------------17-16-15 14-----------------------------|
B|-------17-16-14--14h16-------------------17-16-14-16h17-14-14-----------|
G|-----------------------13-----------------------------------------------|
D|------------------------------------------------------------------------|
A|------------------------------------------------------------------------|
E|------------------------------------------------------------------------|

E|--16-14------------------------------------------------14-17-16-14-17-16|
B|--------17-16-14-13-14h16--14-13---13-14-16---14-16-17------------------|
G|------------------------------------------------------------------------|
D|------------------------------------------------------------------------|
A|------------------------------------------------------------------------|
E|------------------------------------------------------------------------|



************************************

| h  Hammer-on

************************************

            
            
Suggest correction
Creating personal tab
Creating personal tab
You can edit any tab online and save it as your Personal.

You can edit, replace or remove any tab part or add personal notes – all changes will be seen only by you.

Personal tabs can be accessed anytime from any device, even offline.
Learn more »
Give kudos to tab author, rate the tab!
1 2 3 4 5
comments
print report bad tab
1 comment total.
0 reply
dcouch94 10 Oct 27, 2015 05:45 PM

Only thing in the lyrics. "dices tú" instead of "dis estu" Great tab! I've been working on this song for the past couple of days.

guest
You may want to rate the tab now too:
select rating
Wanna post a correction for this tab? Suggest correction