Oops, an error
Loading. Please wait.

Anestesias tab

16 views 1 this week
no commentswrite comment
1 2 3 4 5
3 more votes to show rating
add to favorites
×
Save as Personal and add changes to this tab that will be seen only by you. Learn more ›
×
You can save this tab as Personal to edit and correct it or add notes. All changes will be seen only by you. Learn more »
launch autoscroll
font size
0
reset
how to read this tab
guitar tuner
edit
Autoscroll
slow
fast
+/-
esc
set tempo
stop
(Intro)

E|--2--------|--0--------|--0--------|--8--------|
B|--3--------|--1--------|--3--------|--8--------|
G|--2--------|--3--------|--2--------|--7--------|
D|--0--------|--2--------|--0--------|--0--------|
A|--0--------|--3--------|--2--------|--0--------|
E|-----------|-----------|-----------|--6--------|

(dos veces)
                                                   
(Frase 1)

E|--3--------|--3-------|--2--------|---------3----|
B|--3--------|--3-------|--4--------|---------3----|
G|--0--------|--2-------|--2--------|---------0----|
D|--0--------|--0-------|--4--------|----2---------|
A|--2--------|--0-------|--2--------|--------------|
E|--3--------|--2-------|-----------|--------------|
       Para     que,            si yo pensaba 

                                             
E|----------------3------|-------3----|-----------3--|--3--|
B|----------------3------|-------3----|-----------3--|--3--|
G|----------------0------|-------0----|-----------2--|--2--|
D|-----------0-----------|-------2----|--2--0-----2--|--2--|
A|-----------------------|--3---------|--3--2--2--0--|--0--|
E|-----------------------|------------|--------3--0--|--0--|
  que en las paredes del   alma   se podría esconder


E|--3--------|--3-------|--2--------|---------3----|
B|--3--------|--3-------|--4--------|---------3----|
G|--0--------|--2-------|--2--------|---------0----|
D|--0--------|--0-------|--4--------|----2---------|
A|--2--------|--0-------|--2--------|--------------|
E|--3--------|--2-------|-----------|--------------|
        Esta    luz,           que me fascina 

E|-------------3------|-------3----|-------------0--|---2--|
B|-------------3------|-------3----|-------------0--|---4--|
G|-------------0------|-------0----|-------------2--|---2--|
D|--------0-----------|-------2----|-----0-------2--|---4--|
A|--------------------|--3---------|-----2--2----0--|---2--|
E|--------------------|------------|--------3----0--|------|
   y A LA vez me    encandila   y me impide volveeer


(Estribillo)

E|--------3-------|---------3------|
B|--------3-------|---------3------|
G|--------0-------|---------0------|
D|--------2-------|---------2------|
A|--------2-------|---------3------|
E|--------0-------|----------------|
   Es una máquina, que solo quiere mas, 

                                         
E|------3--------|-------0----|--0--------|
B|------3--------|-------3----|--0--------|
G|------0--------|-------2----|--0--------|
D|------0--------|-------0----|--2--------|
A|------2--------|------------|--2--------|
E|- ----3--------|--2---------|--0--------|
   Me asusta,    no puedo    escapar


E|-----------|----|----------|---3--------|--3--------|--2--------|
B|-----------|----|-1--------|---1--------|--1--------|--4--------|
G|------0----|--0-|-0--------|---0--------|--2--------|--2--------|
D|------2----|--0-|-2--------|---2--------|--0--------|--4--------|
A|------3----|--2-|-0--------|---0--------|--2--------|--2--------|
E|-----------|----|----------|---3--------|-----------|-----------|
   Solo quize  ale jarme, por un tiempo de aca


E|--------3-------|----------3------|
B|--------3-------|----------3------|
G|--------0-------|----------0------|
D|--------2-------|----------2------|
A|--------2-------|----------3------|
E|--------0-------|-----------------|
   Es una lágrima que obliga a matar

                                                       
E|------3-------|-------3----|-------3----|-------3----|
B|------3-------|-------3----|-------3----|-------3----|
G|------0-------|-------0----|-------0----|-------0----|
D|------0-------|--1---------|--2---------|--3---------|
A|------2-------|------------|------------|------------|
E|------3-------|------------|------------|------------|
    Los labios los puertos  se  vuelven    desiertos, 

                                                    
E|--------3----|--2------|--0-------|--3-----|
B|--------3----|--3------|--1-------|--1-----|
G|--------0----|--2------|--0-------|--0-----|
D|--------2----|--4------|--2-------|--2-----|
A|--------3----|--2------|--0-------|--0-----|
E|-------------|---------|--0-------|--3-----|
   quiero alcanzaaar el brillo que nos hace estallar

(Intro)

(Frase 2) igual que (frase 1)

  Aquí estoy, inaccesible, 
  sintiéndome irrompible, odio estar así

  Y tu cruz, tan anestesia, 
  tan dorada, tan violenta, es igual que mi luz

(Estribillo)

  Es una máquina.....

(Intro) 3 veces.
(Fin)
Suggest correction
Creating personal tab
Creating personal tab
You can edit any tab online and save it as your Personal.

You can edit, replace or remove any tab part or add personal notes – all changes will be seen only by you.

Personal tabs can be accessed anytime from any device, even offline.
Learn more »
Give kudos to tab author, rate the tab!
1 2 3 4 5
comments
print report bad tab
guest
Wanna post a correction for this tab? Suggest correction