Oops, an error
Loading. Please wait.

Cada Beso tab

49 views 1 this week
no commentswrite comment
1 2 3 4 5
3 more votes to show rating
add to favorites
×
Save as Personal and add changes to this tab that will be seen only by you. Learn more ›
×
You can save this tab as Personal to edit and correct it or add notes. All changes will be seen only by you. Learn more »
launch autoscroll
font size
0
reset
how to read this tab
guitar tuner
edit
Autoscroll
slow
fast
+/-
esc
set tempo
stop
Intro (1):   B  B  B   Emtr Fmtr F#mtr F#7tr
Intro (2):   B  A  B   Emtr Fmtr F#mtr F#7tr

Intro (1)
E -------------------------------------------------------------
B -------------------------------------------------------------
G ---------7--------------7---------------7--------------------
D -----7-9--9-7-9-----7-9--9-7-9------7-9--9-7-9--7--7-8-9-11--
A -7-9------------7-9-------------7-9--------------9-----------
E -------------------------------------------------------------
     
 
Intro  (2)     
E -------------------------------------------------------
B -------------------------------------------------------
G -7---------------7---------------7---------------------
D ---9-7-9-----7-9--9-7-9------7-9--9-7-9--7--7-8-9-11---
A ---------7-9-------------7-9--------------9------------
E -------------------------------------------------------
  Uuuh          Uuuh          Uuuh

Intro (2)
E -------------------------------------------------------
B -------------------------------------------------------
G -7---------------7---------------7---------------------
D ---9-7-9-----7-9--9-7-9------7-9--9-7-9--7--7-8-9-11--- 
A ---------7-9-------------7-9--------------9------------
E -------------------------------------------------------
   Uuuh          Uuuh          Uuuh


B     A      B     Emtr Fmtr F#mtr F#7tr
Yo estoy sintiendo
B      A         B     Emtr Fmtr F#mtr F#7tr
No aguanto el silencio
B      A      B    Emtr Fmtr F#mtr F#7tr
No talvez no pueda
B     A        B    Emtr Fmtr F#mtr F#7tr
Encontrar la puerta

Em7
Y cuando tengo solo frio
F#mtr
Los días que no estás conmigo
Em7
Mi mesa tiene espejos vivos
     F#7
Y no puedo ni decir que no

B     A    B   Emtr Fmtr F#mtr F#7tr
Uuuh Uuuh Uuuh
B     A    B   Emtr Fmtr F#mtr F#7tr
Uuuh Uuuh Uuuh

B    A       B    Emtr Fmtr F#mtr F#7tr
Ese sol que quema
B      A     B   Emtr Fmtr F#mtr F#7tr
Es la luna llena
B      A     B    Emtr Fmtr F#mtr F#7tr
Es que todo falla
B      A      B    Emtr Fmtr F#mtr F#7tr
Es lo que me falta

Em7       A
Y desde adentro
D                A
Después de cada beso voy
Em              F#        B  B
Pensando que todo será mejor

Em7        A
Cuando te veo
D                A
Después de cada beso
Em                F#
La vida se transforma
         B   A  B  Emtr Fmtr F#mtr F#7tr
En una flor uh uh
B     A    B   Emtr Fmtr F#mtr F#7tr
Uuuh Uuuh Uuuh

B     A      B    Emtr Fmtr F#mtr F#7tr
El dolor no para
B     A      B     Emtr Fmtr F#mtr F#7tr
Mi padre se marcha
B      A      B    Emtr Fmtr F#mtr F#7tr
No no quiero nada
B     A     B     Emtr Fmtr F#mtr F#7tr
Déjenme y salgan

Em7        A
Y desde adentro
D                A
Después de cada beso voy
Em              F#        B  B
Pensando que todo será mejor

Em7        A
Cuando te veo
D                A
Después de cada beso
Em               F#
La vida se transforma
         B   A  B  Emtr Fmtr F#mtr F#7tr
En una flor uh uh
B     A    B    Emtr Fmtr F#mtr F#7tr
Uuuh Uuuh Uuuh

Intro (1)
Intro (2)

E --------------------------------------------------------------
B --------------------------------------------------------------
G --------------------------------------------------------------
D -13-10-10-13-10-10-13-10-13-10-10-13-10-10-13-10-13-10-10-13--
A --------------------------------------------------------------
E --------------------------------------------------------------

E --------------------------------------------------------------
B --------------------------------------------------------------
G --------------------------------------------------------------
D -10-10-13-7-8-9-11--13-10-10-13-10-10-13-10-13-10-10-13-10-10-
A --------------------------------------------------------------
E --------------------------------------------------------------

E ----------------------------------------
B ----------------------------------------
G ----------------------------------------
D -13-10-13-10-10-13-10-10-13-7-8-9-11-9--
A ----------------------------------------
E ----------------------------------------

Acordes:
       E A D G B E
B    : 2 2 4 4 3 2
A    : 0 0 2 2 2 0
Emtr : x x 2 4 5 3
Fmtr : x x 3 5 6 4
F#mtr: x x 4 6 7 5
F#7tr: x x 4 6 5 6
Em7  : 7 7 9 7 8 7
D    : 0 0 0 2 3 2
F#7  : 2 4 2 3 2 2
F#   : 2 4 4 3 2 2

            
            
Suggest correction
Creating personal tab
Creating personal tab
You can edit any tab online and save it as your Personal.

You can edit, replace or remove any tab part or add personal notes – all changes will be seen only by you.

Personal tabs can be accessed anytime from any device, even offline.
Learn more »
Give kudos to tab author, rate the tab!
1 2 3 4 5
comments
print report bad tab
guest
Wanna post a correction for this tab? Suggest correction