Oops, an error
Loading. Please wait.

Huesos tab

22 views 1 this week
no commentswrite comment
1 2 3 4 5
3 more votes to show rating
add to favorites
×
Save as Personal and add changes to this tab that will be seen only by you. Learn more ›
×
You can save this tab as Personal to edit and correct it or add notes. All changes will be seen only by you. Learn more »
launch autoscroll
font size
0
reset
how to read this tab
guitar tuner
edit
Autoscroll
slow
fast
+/-
esc
set tempo
stop
Esta es la versión acústica, para tocar en el mismo tono que el grillo, 
se debe afinar la guitarra medio tono mas abajo, o sea en D#...


Am7              Em/C        Dadd11            
E||-----3------|-----3------|-----5------|--------------------||
B||-----1------|-----0------|-----3------|--------------------||
G||-----2------|-----0------|-----0------|--------------------||   (4 Veces)
D||-----2------|-----2------|-----4------|--------------------||
A||-----0------|-----3------|-----5------|-----3---5--3--0----||
E||------------|------------|------------|--5-----------------||


E||------------------|-------------------|-------------------|-------------------||
B||---------------3--|----------------3--|----------------3--|----------------0--||
G||----------0-------|-----------0-------|-----------0-------|-----------0-------||
D||-----4------------|------4------------|------4------------|------4------------||   (4 veces) 
A||-------------- ---|- -----------------|-0-----------------|-0-----------------||
E||-0----------------|-3-----------------|-------------------|-------------------||


 (Repetir INTRO 2)

Me quedo dibujando más de los que puedo encontrar
Necesito algo que me ayude a descansar
Debilidades puestas en la misma cantidad
En el camino vi una bailarina sin bailar
                         
E||-----------------3----|-----------------5----|-----------------9----|-----------------9----||
B||------------0---------|------------0---------|------------7---------|------------7---------||
G||-------0--------------|----------------------|-------9--------------|-------9--------------||
D||----------------------|-------5--------------|--0-------------------|--0-------------------||
A||----------------------|--4-------------------|----------------------|----------------------||
E||--2-------------------|----------------------|----------------------|----------------------||
       C     u     A      A       A       n      D      o         h   a   y

E||------------------|-------------------|-------------------|-------------------||
B||---------------3--|----------------3--|----------------3--|----------------0--||
G||----------0-------|-----------0-------|-----------0-------|-----------0-------||
D||-----4------------|------4------------|------4------------|------4------------||    
A||-------------- ---|- -----------------|-0-----------------|-0-----------------||
E||-0----------------|-3-----------------|-------------------|-------------------||
las tentaciones no me    sirven    para recordar

E||-----------------3----|-----------------5----|-----------------9----|-----------------9----||
B||------------0---------|------------0---------|------------7---------|------------7---------||
G||-------0--------------|----------------------|-------9--------------|-------9--------------||
D||----------------------|-------5--------------|--0-------------------|--0-------------------||
A||----------------------|--4-------------------|----------------------|----------------------||
E||--2-------------------|----------------------|----------------------|----------------------||
        S    i     e     e        e       n     t        o        q   u  e

E||------------------|-------------------|-------------------|-------------------||
B||---------------3--|----------------3--|----------------3--|----------------0--||
G||----------0-------|-----------0-------|-----------0-------|-----------0-------||
D||-----4------------|------4------------|------4------------|------4------------||    
A||-------------- ---|- -----------------|-0-----------------|-0-----------------||
E||-0----------------|-3-----------------|-------------------|-------------------||
   si necesito mas no     podré      reir

    G                Fm     E
mis huesos se derretirán 

              A    
si necesito volar

     G             Fm     E
a buscarte para cantar
                     A     (F#-F#-G)--> bajo en la 6º cuerda
y aquel silencio olvidar


 (2 veces)

 (se toca igual que la frase 1)

La decisión minimizó la grieta interior
Construimos una emisora del dolor
Renuncio a averiguar los fundamentos del perdón
Una madre sufre el mundo de otra madre en adopción



Cuaaando hay...

Am7              Em/C        Dadd11            
E||-----3------|-----3------|-----5------|--------------------||
B||-----1------|-----0------|-----3------|--------------------||
G||-----2------|-----0------|-----0------|--------------------||   (4 Veces)
D||-----2------|-----2------|-----4------|--------------------||
A||-----0------|-----3------|-----5------|-----3---5--3--0----||
E||------------|------------|------------|--5-----------------||

(Repetir FINAL mientras se canta a dos voces)...

Lo bebido no resiste tantas emociones, agresivas
Estoy muriendo con un soplo de desilusiones, desvestidas

Saca tu boca de mis controles
Y desátame más...

            
            
Suggest correction
Creating personal tab
Creating personal tab
You can edit any tab online and save it as your Personal.

You can edit, replace or remove any tab part or add personal notes – all changes will be seen only by you.

Personal tabs can be accessed anytime from any device, even offline.
Learn more »
Give kudos to tab author, rate the tab!
1 2 3 4 5
comments
print report bad tab
guest
Wanna post a correction for this tab? Suggest correction