Oops, an error
Loading. Please wait.

Raquel chords

16 views 1 this week
no commentswrite comment
1 2 3 4 5
3 more votes to show rating
add to favorites
×
Save as Personal and add changes to this tab that will be seen only by you. Learn more ›
×
You can save this tab as Personal to edit and correct it or add notes. All changes will be seen only by you. Learn more »
launch autoscroll
font size
0
reset
transpose
0
reset
simplify chords
display chords
guitar tuner
edit
Autoscroll
slow
fast
+/-
esc
set tempo
stop
Strumming
There is no strumming pattern for this song yet. and get +5 IQ
Intro:
(la 2ª guitarra acompaña igual que la 1ª estrofa)

E |-------------------------------|----------7-9-7-----------|
B |-----------10-12-10------------|--------7--------7--------|
G |---------9-----------9---------|-----0-------------8------|
D |-----11----------------11------|--------------------------|
A |--0----------------------------|--6-----------------------|
E |-------------------------------|--------------------------|
         

  -----9--10---12--10--9-----|-------------------------------|
  -----7--8----11--8---7-----|-----------10-12-10------------|
  -----7---------------7-----|---------9-----------9---------|
  --0------------------------|-----11----------------11------|
  ---------------------------|--0----------------------------|
  ---------------------------|-------------------------------|

                                                          
  ----------7-9-7-----------|----9--12-10-9-7------------|--||
  --------7--------7--------|----7------------10----9----|--||
  -----0-------------8------|----7-----------------------|--||
  --------------------------|----------------------------|--||
  --6-----------------------|----------------------------|--||
  --------------------------|----------------------------|--||

A add 9     B/A            Bm7       Bm7b5          A add 9
     Cuando escribas en tu piel un silencio te hablara
         B/A         G6       F#7     
     a pesar del corazón y de todo el olvido
         Bm7       Bm7/A        E7/G#    Bm7/E
     que seguira y te amara, te buscara...

A add 9     B/A            Bm7       Bm7b5        A add 9
     Fuiste mastiles de amor, una estrella sin temor
            B/A            G6         F#7               
     esperanza viajando al sol, un refugio de vidas
         Bm7         Bm7/A        E7/G#  Bbdim7  Bm7   Eaug
     que volaran, te tocaran y  olvidaran     tu      entrega...

D7/F#         E               C#m7         F#m7
     Hola Raquel, te busco en todos los jardines
Bm7             E                 C#7          F#m7
     que tal Raquel, te espero en todos los perfumes
         F#m7/E    D#m7b5   Dmaj7
     que guarda mi vida contigo...
   
     Hola Raquel, te entrego todos los jazmines
     que tal Raquel, no tengas miedo porque sigue tu vida
     consigue motivos...

(Intro)

A add 9    B/A        Bm7      Bm7b5        A add 9
     La tortura ya abuso tus sentidos y el dolor
B/A                       G6        F#7
     si el crepusculo empezo, ahora mira hacia arriba
     Bm7            Bm7/A       E7/G#
     asi veras que alejaras las penas...
     F#m7   F#m7/E      D#m7b5
     Voy pensando en el tiempo que queda
     F#m7   F#m7/E      D#m7b5         Dmaj7
     cada segundo disminuye la espera y te vas...

     Hola Raquel...

(Intro) Fin


-----------------------------------------------------------------------


Aquí estan algunos acordes mas o menos desconocidos.
El número indica el numero de traste en el que se debe pisar.
X = no tocar esa cuerda.

CUERDAS= E B G D A E

A(add9)= 0 2 4 2 0 x
B/A    = 2 0 0 1 x x
Bm7b5  = 1 3 2 0 2 x
G6     = 2 3 4 5 x x
Bbdim7 = 0 2 0 2 1 x
Eaug   = 0 1 1 2 3 0
D#m7b5 = 2 2 2 1 x x
Dmaj7  = 1 1 2 0 x x
Suggest correction
Creating personal tab
Creating personal tab
You can edit any tab online and save it as your Personal.

You can edit, replace or remove any tab part or add personal notes – all changes will be seen only by you.

Personal tabs can be accessed anytime from any device, even offline.
Learn more »
Give kudos to tab author, rate the tab!
1 2 3 4 5
comments
print report bad tab
guest
Wanna post a correction for this tab? Suggest correction