Oops, an error
Loading. Please wait.

Buster Voodoo tab

version 1
version 1

Whole song

Interactive

46,727 views 18 this week
3 commentsread comments
1 2 3 4 5
x 16
add to favorites
×
Save as Personal and add changes to this tab that will be seen only by you. Learn more ›
×
You can save this tab as Personal to edit and correct it or add notes. All changes will be seen only by you. Learn more »
launch autoscroll
font size
0
reset
how to read this tab
guitar tuner
edit
Autoscroll
slow
fast
+/-
esc
set tempo
stop
Author
Difficulty
intermediate
[Intro]
(Gabriela)
E|---------------------------------------------|---------------------------------------------|
B|---------------------------------------------|---------------------------------------------|
G|---------------------------------------------|-----------------------------77----77----9-9-|
D|-----9--xx--------------------9----xx--------|-----9--xx----------------xx-77-xx-77-xx-9-9-|
A|-----0--xx------7h8p7---------0----xx--------|-----0--xx------7h8p7-----xx-00-xx-00-xx-0-0-|
E|-7-7----xx-7-10-0*----10--7-7---55-xx--5-5h7-|-7-7----xx-7-10-0*----10--xx----xx----xx-----|

(Every other time, Gabriela plays her crazy, fast, muted thing as a substitute for the very
end part)

[Intro] 
(Rodrigo)
E|------------------------------------------------------------------------------|
B|-------------5-6-5------------------------------------------------------------|
G|-----/7-6--7-------7----------------------------------------------------------|
D|---4----------------7/9--------7-------7-9----7-9-----------------------------|
A|-2-------------------------7h9-----7h9------9-----9~-5-7-9--------------------|
E|-------------------------7-------7-------------------------7~-5-5-5-5-5-5-6-7-|

(0:32) 
[Riff 2] 
(Rodrigo)
E|----------------------|---1st Ending-----------|---2nd Ending---|
B|----------------------|------------------------|----------------|
G|----------------------|------------------------|----------------|
D|----------------------|------------------------|-4444-4444-44-0-|
A|-------5-------5------|-------5---8-7h8p7------|-4444-4444-44-0-|
E|-7-5h7---0-3/5---7--5-|-7-5h7---0*--------10-5-|-2222-2222-22-0-|

[Instrumental]
E|------------------------------------------------------------------------------|
B|-------------5-6-5------------------------------------------------------------|
G|-----/7-6--7-------7----------------------------------------------------------|
D|---4----------------7/9--------7-------7-9----7-9-----------------------------|
A|-2-------------------------7h9-----7h9------9-----9~-5-7-9--------------------|
E|-------------------------7-------7-------------------------7~-5-5-5-5-5-5-6-7-|

(1:04 Both Guitars)
E|-----------------------------------------------------------------|
B|-----------------------------------------------------------------|
G|-----------------------------------------------------------------|
D|----xxx-xxx-xxx------xxx-xxx-xxx-----xxx-xxx-xxx-x-xxx-xxx-xxx-0-|
A|-9\-xxx-xxx-xxx-7-9\-xxx-xxx-xxx-7-9-xxx-xxx-xxx-x-xxx-xxx-xxx-0-|
E|-7\-xxx-xxx-xxx-5-7\-xxx-xxx-xxx-5-7-xxx-xxx-xxx-x-xxx-xxx-xxx-0-|

(Honestly I have no idea why I bother putting the x’s in there, because I have no idea 
rhythm is, I just want to let you know its there.)

(1:12 Riff: Rodrigo)
E|---------------------------------12-------------------------------------------------------------|
B|---12-10-14-10-11-12-----12-10-14--14-12-----12-10-14-10-11-12----11-14-12-11h12p11-------------|
G|-11--------------------11------------------11-------------------11-----------------12-11--------|
D|9---------------------9-------------------9---------------------------------------------14-12-11|
A|------------------------------------------------------------------------------------------------|
E|------------------------------------------------------------------------------------------------|

(Its hard to tell, but I think that the lead is doubled with an octave down, played like this:)
E|-----------------------------------------------------------------------------------|
B|-----------------------------------------------------------------------------------|
G|------------------------------9----------------------------------------------------|
D|-----9-7-11-7-8-9------9-7-11---11-9------9-7-11-7-8-9----8-11-9-8h9p8-------------|
A|---9-----------------9------------------9---------------9--------------10-9-7------|
E|-7-----------------7------------------7---------------------------------------10-9-|


************************************

| x  Dead note
| h  Hammer-on
| p  Pull-off
| *  Natural harmonic
| /  Slide up
| ~  Vibrato
| \  Slide down

************************************
Suggest correction
Creating personal tab
Creating personal tab
You can edit any tab online and save it as your Personal.

You can edit, replace or remove any tab part or add personal notes – all changes will be seen only by you.

Personal tabs can be accessed anytime from any device, even offline.
Learn more »
comments
print report bad tab
3 comments total.
-2 reply
NukeSpoon 10 Dec 04, 2009 05:35 AM

E|----------------------|---1st Ending-----------|---2nd Ending---|
B|----------------------|------------------------|----------------|
G|----------------------|------------------------|----------------|
D|----------------------|------------------------|-4444-4444-44-0-|
A|-------5-------5------|-------5---8-7-5h7p5----|-4444-4444-44-0-|
E|-7-5h7---0-3/5---7--5-|-7-5h7---0*----------7--|-2222-2222-22-0-|


This sounds better I think.

0 reply
guitarguyism7 36 Sep 30, 2011 04:32 PM

1:27 to 1:40 =)
e------------------------------
B--------5s7-5-----------------
G-4-7-4-6--------4-7-4-3-6-3---
D---------------------4--------
A------------------------------
E------------------------------

e-----------------------------------------------------------
B--------5s7-5--7-7-7-7-8-8-8-8-7-7-7-7-5-5-5-5-5-5-3-3-3-3-
G-4-7-4-6---------------------------------------------------
D-----------------------------------------------------------
A-----------------------------------------------------------
E-----------------------------------------------------------

0 reply
uniformswift 10 Jun 26, 2013 04:05 AM

hey great tab!!! it's been really helpful and seems to be completely accurate, but i was wondering if you are going to tab the rest of the song? it'd be great if you could :)thanx.

guest
You may want to rate the tab now too:
select rating
Wanna post a correction for this tab? Suggest correction