Oops, an error
Loading. Please wait.

Georges Street intro tab

version 1
version 1

Intro

Interactive

5,053 views 1 this week
1 commentread comment
1 2 3 4 5
x 4
add to favorites
×
Save as Personal and add changes to this tab that will be seen only by you. Learn more ›
×
You can save this tab as Personal to edit and correct it or add notes. All changes will be seen only by you. Learn more »
launch autoscroll
font size
0
reset
how to read this tab
guitar tuner
edit
Autoscroll
slow
fast
+/-
esc
set tempo
stop
Difficulty
It's my first tab so dont complain if there are mistakes, this is what i thought i could hear.
The riff is played pretty quickly, so you have to listern to the song to get an idea of 
speed and timing.

e|------5-----------|------5----------------|------------------|
B|--5-6-----6---8---|6-5-6---6-5---5h6p5----|--5-6-8---6---5---|
G|7-----------7-----|------------7-------7--|7-----------7-----|
D|------------------|-----------------------|------------------|
A|------------------|-----------------------|------------------|
E|------------------|-----------------------|------------------|

e|------5---------------|
B|5-6-8----6----5h6p5---|
G|-----------7--------7-|
D|----------------------|
A|----------------------|
E|----------------------|

    Guitar 1 plays the riff once
    Guitar 2 plays the riff once
    Violin plays it once
    On the 4th time round all three play together.
    leadin into the rest of the song

 I havn't figured out the rest of the song yet, but i'm trying.

 Hope the tab helps.
 Tabbed by Uncle Rob.

            
            
Suggest correction
Creating personal tab
Creating personal tab
You can edit any tab online and save it as your Personal.

You can edit, replace or remove any tab part or add personal notes – all changes will be seen only by you.

Personal tabs can be accessed anytime from any device, even offline.
Learn more »
comments
print report bad tab
1 comment total.
0 reply
hugobenchimol 10 Jul 17, 2015 09:05 AM, edited at 01:07 pm

let me fix this

e|------5-----------|----------8------------|------------------|------5--------------|
B|--5-6-----6---8---|6-5---5-6---6-5h6p5----|----5-8---6---5---|----5----8-6-5h6p5---|
G|7-----------7-----|----7---------------7--|--7---------7-----|--7----------------7-|
D|------------------|-----------------------|8-----------------|8--------------------|
A|------------------|-----------------------|------------------|---------------------|
E|------------------|-----------------------|------------------|---------------------|

guest
Wanna post a correction for this tab? Suggest correction