Oops, an error
Loading. Please wait.

Hanuman Tab

version 1
version 1

Whole song

Interactive

146,880 views 177 this week
3 commentsread comments
1 2 3 4 5
x 37
add to favorites
launch autoscroll
font size
0
reset
how to read this tab
guitar tuner
Autoscroll
slow
fast
+/-
esc
set tempo
stop
Help us to improve Ultimate-Guitar.com Take our survey!
×
Author
Difficulty
intermediate
Artist -- RODRIGO Y GABRIELA

Album -- 11:11

Song -- HANUMAN




=======
Intro 1
=======


 Main

   E5                   G5  F#5 E5               B5    B5  E5                   G5  F#5
e|------------------------------------------------------------------------------------|
B|------------------------------------------------------------------------------------|
G|------------------------------------------------------------------------------------|
D|------------------------------------------------------------------------------------|
A|-7--x-x-5/7--------9-/10--9--7--x-x-5/7--------9-x-x-9/-----x-x-5/7--------9-/10--9-|
E|-0----------x-5--x-7---------0----------x-5--x-7-x-x-7/--0----------x-5--x-7--------|


 Ending 1                                 Ending 2

       E5   D5       C#5  C5   B5             E5   D5       C#5      C5       B5
e|---------------------------------|     e|---------------------------------------|
B|---------------------------------|     B|---------------------------------------|
G|---------------------------------|     G|---------------------------------------|
D|-----9--x-7--x-x-x-6--x-5--x-4---|     D|---9--x-7--x-x-x-6--x--x--5--x--x--4---|
A|-----7--x-5--x-x-x-4--x-3--x-2---|     A|---7--x-5--x-x-x-4--x--x--3--x--x--2---|
E|---------------------------------|     E|---------------------------------------|



=======
Intro 2
=======


       Em  B  Em  B  Em  B  Em               B
e|-----------------------------------------------|
B|-----------------------------------------------|
G|-----------------------------------------------|
D|---2-------------------------------------------|
A|---2-------------------------------------------|    tremolo pick while
E|---0----------------------17-/-/-/-/-/-/-/-7---|    muting and sliding



======
Part A
======


Main

     Em        B          Em        B          Em        B
e|------------------------------------------------------------------|
B|-----8-----------7--------8-----------7-87-----8-----------7------|
G|---9---------8-9---8----9---------8-9--------9---------8-9---8----|
D|------10-9----------9------10-9-----------------10-9----------9---|
A|------------------------------------------------------------------|
E|------------------------------------------------------------------|


 Ending 1                            Ending 2

    Am          B                       Am                        B
e|-----------------------------|    e|-------------------------8--7h8p-7----7h8p-7--|
B|-----------------------------|    B|------------------7--10-----------------------|
G|-----------8--9-8h9p8--------|    G|---------------8------------------------------|
D|--7--9-10-------------10--9--|    D|--7-----7--10---------------------------------|
A|-----------------------------|    A|-----7----------------------------------------|
E|-----------------------------|    E|----------------------------------------------|


note: the second time round, the riff under the 2nd B in Main is played as

|--------7-8-7h8p7---|
|--8--9--------------|



======
Part B
======


 Main

     Em                         B
e|-----------------------------------------------------|
B|------------8------8--7h8p7---------7--10--8--7------|
G|---9-----9------9----------------8---------------8---|
D|------9-----------------------9----------------------|
A|-----------------------------------------------------|
E|-----------------------------------------------------|


 Ending 1

e|--------------------------------------------------------------|
B|------------8------8--7/-12-12-12-12/10-10-10-10/8-8-8-8/-7---|
G|---9-----9------9---------------------------------------------|
D|------9-------------------------------------------------------|
A|--------------------------------------------------------------|
E|--------------------------------------------------------------|


 Ending 2

     Em                                         B
e|--------------------------------------------------------------------------|
B|----------------------------------------------12--0--11--0--10--0--8--0---|
G|---9-9-9/11-11-11-11/12-12-12-12/14-14-14-14------------------------------|
D|--------------------------------------------------------------------------|
A|--------------------------------------------------------------------------|
E|--------------------------------------------------------------------------|


 Ending 3

     Em                    B
e|-------------------------6-6-0--6-6-0--6-6-0--7\---|
B|------------8------8--7----------------------------|
G|---9-----9------9----------------------------------|
D|------9--------------------------------------------|
A|---------------------------------------------------|
E|---------------------------------------------------|


 Ending 4

     E5      F#5     G5       A5         B5         Bb5        A5         G5
e|-----------------------------------------------------------------------------------|
B|---5-7-5-0-7-8-7-0-8-10-8-0-10-12-10-0-12-13-12-0-11-12-11-0-10-11-10-0-8-10-8-0---|
G|-----------------------------------------------------------------------------------|
D|-----------------------------------------------------------------------------------|
A|-----------------------------------------------------------------------------------|
E|-----------------------------------------------------------------------------------|


note: Gabriela doesn't play over Main until Ending 2 has been played

note: just before Ending 4, it's easier to play the last 8 in Main as 4 on the B string



======
Part C
======


    Em          B                     Em                 B
e|---------------------------------------------------------------------------|
B|-----8----8----------------------------------------------------------------|
G|--9----9----9-8h9p8----------------------------------------------------8---|
D|---------------------9--9-7-------------------------------------7-10-9-----|
A|----------------------------10-9-10-7--10-7--10-7h10p7-6----6-9------------|
E|----------------------------------------------------------7----------------|


    Em          B                     Em     C     B
e|------------------------------------------------------------------|
B|-----8----8-------------------------------------------------------|
G|--9----9----9-8h9p8-----------------------------------------------|
D|---------------------9--9-7---------9---9-------------------------|
A|----------------------------10-9-10-7---7--10-10-9--9-9-9-9-9-9---|
E|-------------------------------------------8--8--7--7-7-7-7-7-7---|



======
Part D
======


     Em       Am       C              B
e|-----------------------------------------------|
B|-----------------------------------------------|
G|-----------------------------------------------|
D|-------10-9---7-10-9------10-9h10p9--------7---|
A|-----7-----------------10-------------9-10-----|
E|-----------------------------------------------|

     Em       Am       C              B
e|-----------------------------------------------|
B|-----------------------------------------------|
G|-----------------------------------------------|
D|-------10-9---7-10-9------10-9h10p9------7-----|
A|-----7-----------------10-----------9-10-------|
E|-----------------------------------------------|

     Em       Am       C              B
e|-----------------------------------------------|
B|-----------------------------------------------|
G|-----------------------------------------------|
D|-------10-9---7-10-9------10-9h10p9--------7---|
A|-----7-----------------10-------------9-10-----|
E|-----------------------------------------------|

     Em       Am       C          B
e|-----------------------------------------------|
B|-----------------------------------------------|
G|-----------------------------------------------|
D|-------10-9---7-10-9------10-9-/12-10-9--------|
A|-----7-----------------10----------------------|
E|-----------------------------------------------|


     Em          Am        C          B
e|-------------------------------------------------|
B|--------13-12------13-12------13-12--------------|
G|----------------14---------12---------11-12-14---|
D|-----14------------------------------------------|
A|-------------------------------------------------|
E|-------------------------------------------------|

     Em          Am        C          B
e|-------------------------------------------------|
B|--------13-12------13-12------13-12--------------|
G|----------------14---------12-------11-12-14-----|
D|-----14------------------------------------------|
A|-------------------------------------------------|
E|-------------------------------------------------|

     Em         Am         C          B            Em
e|-------------------------------------------------------|
B|--------13-12------13-12------13-12--------------------|
G|----------------14---------12---------11-12-14---------|
D|-----14------------------------------------------14\---|
A|-------------------------------------------------------|
E|-------------------------------------------------------|

     B5        Bb5       A5        G5
e|--------------------------------------------|
B|---12///////-11///////-10///////-8///////---|   tremolo pick, don't slide
G|--------------------------------------------|
D|--------------------------------------------|
A|--------------------------------------------|
E|--------------------------------------------|



 Background Guitar

e|-----------------------------|
B|-----------------------------|
G|-----------------------------|
D|-----------------------------|    plays behind 5th to 7th sections
A|-----------------------------|
E|---0--0-5-8--7---2-5-5-3-2---|    often played live



========
Part E 1
========


e|------12-12-12------8--8--8-------8-8-8------7-7-7------|
B|------12-12-12------10-10-10------8-8-8------7-7-7------|
G|------12-12-12------9--9--9-------9-9-9------8-8-8------|
D|--------------------------------------------------------|
A|--------------------------------------------------------|
E|--------------------------------------------------------|


 Gabriela

e|--------------------------------|
B|--------------------------------|
G|--------------------------------|
D|--------------------------------|
A|--7-/-2-/-7-/-2-/-7-/-2-/-...---|
E|--0-----------------------------|



========
Part E 2
========


      Em         Am         C          B
e|------7-7-7------5-5-5------8-8-8------7-7-7----|
B|------8-8-8------5-5-5------8-8-8------7-7-7----|
G|------9-9-9------5-5-5------9-9-9------8-8-8----|
D|------------------------------------------------|
A|------------------------------------------------|
E|------------------------------------------------|   (x3)


      Em         Am            C             B
e|------7-7-7------8--8--8-------12-12-12----11--11--11--11----|
B|------8-8-8------10-10-10------13-13-13----12--12--12--12----|
G|------9-9-9------9--9--9-------12-12-12----11--11--11--11----|
D|-------------------------------------------------------------|
A|-------------------------------------------------------------|
E|-------------------------------------------------------------|



====
Solo
====


   Em               Am                         C             B
e|-12-15-12-0---------------------------------------------------------------11-12-11---|
B|------------12-15-12-0--------------------------------8-10-8-0-12-13-12-0----------0-|
G|-----------------------12-14-12-0-11-12-11-0-9-11-9-0--------------------------------|
D|-------------------------------------------------------------------------------------|
A|-------------------------------------------------------------------------------------|
E|-------------------------------------------------------------------------------------|

   Em               Am                         C             B
e|-12-15-12-0--------------------------------------------------------------------------|
B|------------12-15-12-0--------------------------------8-10-8-0-12-13-12-0-12-13-12-0-|
G|-----------------------12-14-12-0-11-12-11-0-9-11-9-0--------------------------------|
D|-------------------------------------------------------------------------------------|
A|-------------------------------------------------------------------------------------|
E|-------------------------------------------------------------------------------------|

   Em                Am                        C             B
e|-12-15-12-0--------------------------------------------------------------------------|
B|------------12-15-12-0--------------------------------8-10-8-0-12-13-12-0-12-10-12-0-|
G|-----------------------12-14-12-0-11-12-11-0-9-11-9-0--------------------------------|
D|-------------------------------------------------------------------------------------|
A|-------------------------------------------------------------------------------------|
E|-------------------------------------------------------------------------------------|

   Em                    Am                    C                     B
e|----------------------------------------14------14-15---14-15-17---19--19--19--19\---|
B|-10-12-13-0-12-13-15-0-13-15-17-0-15-17----0-17-------0----------0-------------------|
G|-------------------------------------------------------------------------------------|
D|-------------------------------------------------------------------------------------|
A|-------------------------------------------------------------------------------------|
E|-------------------------------------------------------------------------------------|



======
Part F
======


     Em             Am             Em                 Am     B
e|----------------------------------------------------------------|
B|----------------------------------------------------------------|
G|----------------------------------------------------------------|
D|----------------------------------------------------------------|
A|----------------------------------------------------7------9/---|
E|---00003-x7-7777-5-55555-x8-8888-7-00003--x7-7777-5-5------7/---|  (x2)



       =======
repeat Intro 2
       =======

       ======
repeat Part A
       ======

       ======
repeat Part C
       ======


=====
Outro
=====

     E5       Em             E5   D5       C#5  C5   B5 E5
e|------------0///////--------------------------------------|
B|------------0///////--------------------------------------|
G|------------0///////--------------------------------------|
D|---2--------2///////-------9--x-7--x-x-x-6--x-5--x-4--2---|
A|---2--------2///////-------7--x-5--x-x-x-4--x-3--x-2--2---|
E|---0--------0///////----------------------------------0---|
           strum rapidly





Tabbed by NintEndO
Suggest correction
comments
print report bad tab
3 comments total.
+2 reply
skatersic666 557 Sep 23, 2010 10:46 AM

A few mistakes here and there, will post corrections when I have time. But a bloody good job, 5 stars from me, even with a few minor mistakes.

Check out this video, of Rodrigo recording Hanuman in the studio. Gave me a lot of help, especially working out which fingers to fret so I can play it the most optimum way.

0 reply
skatersic666 557 Sep 23, 2010 10:54 AM

Yeah, the video would help :)

http://www.youtube.com/watch?v=TO_VkgAPp-g&feature=related

0 reply
zivanovich1 10 Jul 20, 2016 01:32 PM

Does anyone know what scale Rodrigo is playing here?

guest
You may want to rate the tab now too:
select rating
Wanna post a correction for this tab? Suggest correction