Oops, an error
Loading. Please wait.

Stairway To Heaven Tab

version 1
version 1

Intro

Solo

Whole song

Interactive

47,691 views 39 this week
8 commentsread comments
1 2 3 4 5
accurate
x 6
add to favorites
launch autoscroll
font size
0
reset
how to read this tab
guitar tuner
Tab Pro tools
  • play this tab
  • loop segment
  • change instrument
  • show fretboard
  • metronome
Autoscroll
slow
fast
+/-
esc
set tempo
stop
Contributor
Difficulty
advanced
NOTE: This is a blend of Rodrigo and Gabriela's part for one guitar.  It is based off of 
DVD footage that came with the album.

Part I: Rodrigo’s Introduction

e |-5--7-------8--7--5-----7~--5--7------8--10--8-------------------|
b |-------------------------------------------------10--------------|
G |-------------------------------------------------9---------------|
D |--------7-----------6--------------5-------------10--------------|
A |-------------------------------------------------9---------------|
E |-----------------------------------------------------------------|

e |-8--10--12--12---------------------------------------------------|
b |--------11------13--9--10--8-------------------------------------|
G |--------10----------8---------5----------------------------------|
D |--------------------7------------7-------------------------------|
A |------------------------------------0--12—6/7/8~-----------------|
E |-----------------------------------------------------------------|

e |---------5--7--8--7-----7~--12---------------------------7-------|
b |-------5------------------------10-------------------10----------|
G |-----5------------------------------9--12--11--9--8--------------|
D |---7-----------------6-------------------------------------------|
A |-0---------------------------------------------------------------|
E |-----------------------------------------------------------------|


e |----8--10--8-----------------------------------------------------|
b |--------------10-----------------------------------------------5-|
G |--------------9-------------9--7----------5----4---------------5-|
D |-5------------10----10--12--------10/7---7----5----------------5-|
A |--------------9---10---9---8------------6----5----5/6/5--3-----x-|
E |-----------------------------------------------------------3/5-5-|

e |--------------------------------------------------8--10----------|
b |----------3h5--7--5------------------10--12------8---------------|
G |----------5----5-----7--9--7--------------------9----------------|
D |----------5-------------7-----10---------------------------------|
A |-0--2--3--------------------------0-----------10-----------------|
E |---------------------------------------------8-------------------|

e |-----3--5--------------------------------------------------------|
b |----3------8—7~-------------------------------7h8--5-------------|
G |---4-------7-------------------------------5----------7-----9h10-|
D |--------------------10-----9------------7----------------7-------|
A |--5--------------0---------------10--5---------------------------|
E |-3----------------------7-----8----------------------------------|

e |---------------8h12------------------8--13------3--8-------------|
b |-----------10--------9--10--12------8----------3-----------------|
G |-7------9--------------------------9----------4------------------|
D |----10-----------------------------------------------------------|
A |---------------------------------10----------5-----------3h5-----|
E |--------------------------------8-----------3---------3h5--------|

e |-----------------------------------------------------------------|
b |-----------------------------------------------------------------|
G |-----------------------------------------REPEAT------------------|
D |------------------------7---6---5—5-5~-------RIFF----------------|
A |---4h6----5h7----6h8--8---7---6-------------------#1-------------|
E |-4h6----5h7----6h8-----------------------------------------------|

e |-----5-----7-----8-----2-----0----0---0---0---0---0--------------|
b |----5-5---5-5---5-5---3-3---1-1----1---1---1---1---1-------------|
G |---5---5-5---5-5---5-2---2-2---2----2---2---2---2---2------------|
D |--7-----6-----5-----4-----3-----3--------------------------------|
A |-0---------------------------------------------------------------|
E |-----------------------------------------------------------------|

e |-----------------------------------------------------------------|
b |-------------------5~~-------------------------------------------|
G |----------5--------5~~-------------------------------------------|
D |-------------6-----5~~-------------------------------------------|
A |-----5/7--------7--x---------------------------------------------|
E |--3----------------5~~-------------------------------------------|

Part II: Gabriella’s Rhythm

e |-----------------------------------------------------------------|
b |-------5--------5--------5--8~--7--5--7-----REPEAT---------------|
G |-----5--------5--------5--------7--5--7--------TWICE-------------|
D |---5--------5--------5-------------------------------------------|
A |----------7------------------------------------------------------|
E |-5-----------------5---------------------------------------------|

e |-8---7-----------------------5--7—8/10--8--7--3--5--5------------|
b |-10--7----------5------------5----------------3--5--5------------|
G |-9---7-------5-----7--5------5----------------4--5--5------------|
D |--------5h7--------------7~-------------------5--7--7------------|
A |----------------------------------------------5--7--7------------|
E |----------------------------------------------3--5--5------------|

e |--8h10--8--10—12~------------------------------------------------|
b |-------------------15--14------12--10---8--5---3—2h5—3/1--1--1---|
G |-------------------15------13--12----9--7---5--4-----4----2--2---|
D |----------------------------------------------------------2--2---|
A |-----------------------------------------------------------------|
E |-----------------------------------------------------------------|

e |-----------------------------------------------------------------|
b |-5-5-5-5--7-7-7-7-------------5----------------------5-----5-----|
G |-5-5-5-5--7-7-7-7---STRUM--------7--5--7--5-------5-----7--------|
D |-5-5-5-5--7-7-7-7-------W/-------------------5h7-----------------|
A |-x-x-x-x--5-5-5-5--------TAP-------------------------------------|
E |-5-5-5-5---------------------------------------------------------|

e |-5--7—8/10--8--7--3--5--5--12--10--8--12--10--8-5--3-2h5-3/1-1-1-|
b |-5----------------3--5--5--13--11--9--13----9-7--5-4-----4---2-2-|
G |-5----------------4--5--5------------------------------------2-2-|
D |------------------5--7--7----------------------------------------|
A |------------------5--7--7----------------------------------------|
E |------------------3--5--5----------------------------------------|


e |------------------2-2-3--2-2-3-3-2-2-2---------------------------|
b |-1-1-1-1-3-3-3-3--3-3-3--3-3-3-3-3-3-3--1------------------------|
G |-0-0-0-0-0-0-0-0--2-2-2--2-2-2-2-2-2-2--0---STRUM----------------|
D |-2-2-2-2-0-0-0-0------------------------2-----------&------------|
A |-3-3-3-3-2-2-2-2------------------------3-------------REPEAT-----|
E |-----------------------------------------------------------------|

Then:
Open G (once)
Open Am
Open G
Open F

Barred Am
Barred G
Barred F
comments
print report bad tab
8 comments total. Showing first comments.
0 reply
SRV16 wrote on February 1 2007, 11:20 am

a fair few mistakes but not bad,

+2 reply
D3WB3RRY wrote on March 5 2007, 10:40 pm

great tab =) few mistakes but its still a great tab

0 reply
sadbuthappy wrote on May 4 2007, 10:46 pm

great tab. it seems almost accurate.

I want to post or [tab]
guest
You may want to rate the tab now too:
select rating
Please do not post tabs as comments. Select "correction" instead!