Oops, an error
Loading. Please wait.

Tamacun tab

version 2
version 2

Whole song

Interactive

150,401 views 186 this week
7 commentsread comments
1 2 3 4 5
x 26
add to favorites
×
Save as Personal and add changes to this tab that will be seen only by you. Learn more ›
×
You can save this tab as Personal to edit and correct it or add notes. All changes will be seen only by you. Learn more »
launch autoscroll
font size
0
reset
how to read this tab
guitar tuner
edit
Autoscroll
slow
fast
+/-
esc
set tempo
stop
Author
TAMACUN
As recorded by Rodrigo Y Gabriela
(From the 2006 Album RODRIGO Y GABRIELA)


Transcribed by Eoin Watson (harmoniclydian)

 Music by Rodrigo Sanchez and Gabriela Quintero

 

Am
5 7 7 5 5 5 G
3 5 5 4 3 3 C
x 3 5 5 5 x E
x 7 9 9 9 x 
Copen
x 3 2 0 1 0 E7
0 2 0 1 3 0 Eopen
0 2 2 1 0 0 Am/C
x x x 5 5 5 
G(type 2)
x x x 4 3 3 C/E
x x x 0 1 0 E/B
x x x 4 5 4 Amopen
x 0 2 2 1 0 
Gopen
3 2 0 0 0 3 Dm7
x 5 7 5 6 5 E7VII
x 7 9 7 9 7 


Gtr I (E A D G B E) - 'Rodrigo'
Gtr II (E A D G B E) - 'Gabriela'
Gtr III (E A D G B E) - 'Rodrigo'


[Intro Section 1]

  Q=130
     $$
        Am              G
 1/4   4/4
  Gtr II
  q     e    Q        S e   Q.            S
  |     |               |
  x     /               /

   Gtr I
         PM   PM---------|   PM---------------
   Q     S S  S S  S S S S S S  S S S S  S S
e|----||-8-----------8---7----------7---10---|
B|----||-----10---10---------8----8----------|
G|----||--------9---------------7------------|
D|----||-------------------------------------|
A|----||-------------------------------------|
E|----||-------------------------------------|


  C             E
  e   Q       S  e   Q.            S
  |              |
  /              /

 -|   PM---------------------------|
  S S S S S S S  S S S  S S S  S S S
e|-8---------8---10---8----7-----------|
B|-----8---8-------------------10-9----|
G|-------9-----------------------------|
D|-------------------------------------|
A|-------------------------------------|
E|-------------------------------------|


  Am              G                     C             E
  e    Q        S e   Q.            S   e   Q       S  e   Q.              S
  |               |                     |              |
  /               /                     /              /

  PM   PM---------|   PM----------------|   PM-----------------------------|
  S S  S S  S S S S S S  S S S S  S S   S S S S S S S  S S S  S  S S  S  S S
e|-8-----------8---7----------7---10---|-8---------8---10---8----12---10------|
B|-----10---10---------8----8----------|-----8---8-----------------------12---|
G|--------9---------------7------------|-------9------------------------------|
D|-------------------------------------|--------------------------------------|
A|-------------------------------------|--------------------------------------|
E|-------------------------------------|--------------------------------------|


   Am              G
   Gtr II
   e    S S  S S S e   S T T S E    T  T   S
e|-5----x-x--x-x-x-3---x-x-x-x-x----x--x---x--|
B|-5----x-x--x-x-x-3---x-x-x-x-x----x--x---x--|
G|-5----x-x--x-x-x-4---x-x-x-x-x----x--x---x--|
D|-7----x-x--x-x-x-5---x-x-x-x-x----x--x--(0)-|
A|-7----x-x--x-x-x-5---x-x-x-x-x----x--x--(0)-|
E|-5----x-x--x-x-x-3---x-x-x-x-x----x-(0)-(0)-|
|
 | Gtr I
 | PM   PM---------|   PM----------------------
 | S S  S S  S S S S S S S   S S S  S      S
e|-8-----------8---7-----------7---10---------|
B|-----10---10---------8-----8----------------|
G|--------9--------------7--------------------|
D|--------------------------------------------|
A|--------------------------------------------|
E|--------------------------------------------|


                               To Coda
   C             E
   e   S S S S S  e   S T T S E   T T  S
e|----------------------------------------|
B|-5---x-x-x-x-x--9---x-x-x-x-x---x-x--x--|
G|-5---x-x-x-x-x--9---x-x-x-x-x---x-x--x--|
D|-5---x-x-x-x-x--9---x-x-x-x-x---x-x--x--|
A|-3---x-x-x-x-x--7---x-x-x-x-x---x-x--x--|
E|------------------------------------(0)-|
|
|-|   PM-----------------------------|
| S S S S S S S  S S S S   S S S S    S
e|-8---------8---10---8-----7-------------|
B|-----8---8--------------------9---------|
G|-------9------------------------9-------|
D|----------------------------------------|
A|----------------------------------------|
E|----------------------------------------|


   Am              G
   e    S S  S S S e   S T T S E    T  T   S
e|-5----x-x--x-x-x-3---x-x-x-x-x----x--x---x--|
B|-5----x-x--x-x-x-3---x-x-x-x-x----x--x---x--|
G|-5----x-x--x-x-x-4---x-x-x-x-x----x--x---x--|
D|-7----x-x--x-x-x-5---x-x-x-x-x----x--x--(0)-|
A|-7----x-x--x-x-x-5---x-x-x-x-x----x--x--(0)-|
E|-5----x-x--x-x-x-3---x-x-x-x-x----x-(0)-(0)-|
|
 | PM   PM---------|   PM----------------------
 | S S  S S  S S S S S S S   S S S  S      S
e|-8-----------8---7-----------7---10---------|
B|-----10---10---------8-----8----------------|
G|--------9--------------7--------------------|
D|--------------------------------------------|
A|--------------------------------------------|
E|--------------------------------------------|


   C             E
   e   S S S S S  e    S  T T  S  E    T T  S
e|---------------------------------------------||
B|-5---x-x-x-x-x--9----x--x-x--x--x----x-x--x--||
G|-5---x-x-x-x-x--9----x--x-x--x--x----x-x--x--||
D|-5---x-x-x-x-x--9----x--x-x--x--x----x-x--x--||
A|-3---x-x-x-x-x--7----x--x-x--x--x----x-x--x--||
E|-----------------------------------------(0)-||
|
|-|   PM----------------------------------|
| S S S S S S S  S S  S  S    S  S S  S    S
e|-8---------8---10--------------10---12-------||
B|-----8---8----------12------12---------------||
G|-------9---------------13--------------------||
D|---------------------------------------------||
A|---------------------------------------------||
E|---------------------------------------------||


[Section 2]

   Am        G                 C                  Eopen            E7
   E  S S  S S S S  S  S S S S S  S S   S S S S S S S  S S S T T S S  S S S
e|-5--5-5--x-3-3-3--x--3-3-3-x-0--0-0-|-x-0-0-0-x-0-0--0-x-0-0-0-0-x--------|
B|-5--5-5--x-3-3-3--x--3-3-3-x-1--1-1-|-x-1-1-1-x-0-0--0-x-0-0-0-0-x--------|
G|-5--5-5--x-4-4-4--x--4-4-4-x-0--0-0-|-x-0-0-0-x-1-1--1-x-1-1-1-1-x----0-0-|
D|-7--7-7--x---5-5--x----5-5-x----2-2-|-x---2-2-x---2--2-x---2-2-2-x--0-0-0-|
A|-7--7-7--x---5-5--x----5-5-x----3-3-|-x---3-3-x---2--2-x---2-2-2-x--2-2-0-|
E|-5--5-5--x---3-3--x----3-3-x--------|-------------0--0-x---0-0-0-x--0-0-0-|
|
 | E  S S  S S S S +S  S S S S S  S S   E   S S S S S  S S S S   S S  S S S
e|-8---------8---7-(7)-------7---10---|-8---------8---10---8-----7----------|
B|---10---10-----------8---8----------|-----8---8--------------------10-9---|
G|------9----------------7------------|-------9-----------------------------|
D|------------------------------------|-------------------------------------|
A|------------------------------------|-------------------------------------|
E|------------------------------------|-------------------------------------|


   Am        G                 Copen              E                 E7
   E  S S  S S S S  S  S T T S S S  E     E S S S S S  S S S T T  S S  S  E
e|-5--5-5--x-3-3-3--x--3-3-3-3-x--------|-0-0-0-x-0-0--0-x-0-0-0--0-x---------|
B|-5--5-5--x-3-3-3--x--3-3-3-3-x--------|-1-1-1-x-0-0--0-x-0-0-0--0-x---------|
G|-5--5-5--x-4-4-4--x--4-4-4-4-x----0---|-0-0-0-x-1-1--1-x-1-1-1--1-x-----0---|
D|-7--7-7--x---5-5--x----5-5-5-x-x--0---|-2-2-2-x---2--2-x---2-2--2-x--0--0---|
A|-7--7-7--x---5-5--x----5-5-5-x-x--0---|-3-3-3-x---2--2-x---2-2--2-x--0--0---|
E|-5--5-5--x---3-3--x----3-3-3-x-0--0---|-----------0--0-----0-0--0-x--0--0---|
|
 | E  S S  S S S S +S  S S   S S S  S S   E S S S S S  S S S S    S S  S  S S
e|-8---------8---7-(7)---------7---10---|-8-------8---10---8-----12---10------|
B|---10---10-----------8-----8----------|---8---8------------------------12---|
G|------9----------------7--------------|-----9-------------------------------|
D|--------------------------------------|-------------------------------------|
A|--------------------------------------|-------------------------------------|
E|--------------------------------------|-------------------------------------|


   Am        G                   Copen              Eopen            E7
   E  S S  S S S S  S  S T T S S S  S S   S S S S S S S  S S S T T S S S T T S
e|-5--5-5--x-3-3-3--x--3-3-3-3-x-0--0-0-|-x-0-0-0-x-0-0--0-x-0-0-0-0-x---------|
B|-5--5-5--x-3-3-3--x--3-3-3-3-x-1--1-1-|-x-1-1-1-x-0-0--0-x-0-0-0-0-x-0-------|
G|-5--5-5--x-4-4-4--x--4-4-4-4-x-0--0-0-|-x-0-0-0-x-1-1--1-x-1-1-1-1-x-0-0-0---|
D|-7--7-7--x---5-5--x----5-5-5-x----2-2-|-x---2-2-x---2--2-x---2-2-2-x-0-0-0-0-|
A|-7--7-7--x---5-5--x----5-5-5-x----3-3-|-x---3-3-x---2--2-x---2-2-2-x---0-0-0-|
E|-5--5-5--x---3-3--x----3-3-3-x--------|-------------0--0-----0-0-0-x---0-0-0-|
|
 | E  S S  S S S S +S  S S   S S S  S S   E   S S S S S  S S S S   S S S S   S
e|-8---------8---7-(7)---------7---10---|-8---------8---10---8-----7-----------|
B|---10---10-----------8-----8----------|-----8---8--------------------9-------|
G|------9----------------7--------------|-------9------------------------9-----|
D|--------------------------------------|--------------------------------------|
A|--------------------------------------|--------------------------------------|
E|--------------------------------------|--------------------------------------|


   Am        G                   C                    Eopen
   E  S S  S S S S  S  S T T S S S  S S   E S S S S S  E      S T T S  E E
e|-5--5-5--x-3-3-3--x--3-3-3-3-x-0--0-0-|-0-0-0-x-0----0------0-0-0-0--x-0--||
B|-5--5-5--x-3-3-3--x--3-3-3-3-x-1--1-1-|-1-1-1-x-0----0------0-0-0-0--x-0--||
G|-5--5-5--x-4-4-4--x--4-4-4-4-x-0--0-0-|-0-0-0-x-0-0--1------1-1-1-1--x-1--||
D|-7--7-7--x---5-5--x----5-5-5-x----2-2-|-2-2-2-x---0--2--------2-2-2--x-2--||
A|-7--7-7--x---5-5--x----5-5-5-x----3-3-|-3-3-3-x---0--2--------2-2-2--x-2--||
E|-5--5-5--x---3-3--x----3-3-3-x--------|--------------0--------0-0-0--x-0--||
|
 | E  S S  S S S S +S  S S   S S S  S S   E S S S S S  S  +S  S S   S  E E
e|-8---------8---7-(7)---------7---10---|-8-------8---10-(10)-7-------------||
B|---10---10-----------8-----8----------|---8---8---------------9---8-------||
G|------9----------------7--------------|-----9-----------------------10-9--||
D|--------------------------------------|-----------------------------------||
A|--------------------------------------|-----------------------------------||
E|--------------------------------------|-----------------------------------||


[Section 3]

  $
  Am/C           G(type 2)         C/E          E/B            Am/C
  Gtr II
     |-3-|           |-3-|           |-3-|             |-3-|
  E  S S S  E  E  E  S S S  E  E   E S S S  E E E      S S S E  E
e|-x--5-5-5--x--5--x--3-3-3--x--3-|-x-0-0-0--x-0-x------4-4-4-x--5--|
B|-x--5-5-5--x--5--x--3-3-3--x--3-|-x-1-1-1--x-1-x------5-5-5-x--5--|
G|-x--5-5-5--x--5--x--4-4-4--x--4-|-x-0-0-0--x-0-x------4-4-4-x--5--|
D|-x---------x-----x---------x----|-x--------x---x------------x-----|
A|-x---------x-----x---------x----|-x--------x---x------------x-----|
E|-x---------x-----x---------x----|-x--------x---x------------x-----|
|
 | Gtr I
 |                                               |-3-|
 | E  E      E  e  e  e      e  E   E E      E e S S S  e     E  E
e|---12---------------------------|------------8-7h8p7--------------|
B|----------13----12-13-----15-13-|---------10---------10-----9-10--|
G|-------------14-----------------|---9-----------------------------|
D|--------------------------------|---------------------------------|
A|--------------------------------|---------------------------------|
E|--------------------------------|---------------------------------|


  Am/C           G(type 2)         C/E            E/B          Am/C
     |-3-|           |-3-|            |-3-|           |-3-|
  E  S S S  E  E  E  S S S  E  E   E  S S S  E  E  E  S S S  E  E
e|-x--5-5-5--x--5--x--3-3-3--x--3-|-x--0-0-0--x--0--x--4-4-4--x--5-|
B|-x--5-5-5--x--5--x--3-3-3--x--3-|-x--1-1-1--x--1--x--5-5-5--x--5-|
G|-x--5-5-5--x--5--x--4-4-4--x--4-|-x--0-0-0--x--0--x--4-4-4--x--5-|
D|-x---------x-----x---------x----|-x---------x-----x---------x----|
A|-x---------x-----x---------x----|-x---------x-----x---------x----|
E|-x---------x-----x---------x----|-x---------x-----x---------x----|
|
 | E  E      E  e  e  e      e  E   E  E      e  e  e  e      E  E
e|---12------------------------12-|----------15-13-12--------------|
B|----------13----12-13-----15----|-------------------15-----13----|
G|-------------14-----------------|---12------------------------14-|
D|--------------------------------|--------------------------------|
A|--------------------------------|--------------------------------|
E|--------------------------------|--------------------------------|


  Am/C           G(type 2)         C/E          E/B            Am/C
     |-3-|           |-3-|           |-3-|             |-3-|
  E  S S S  E  E  E  S S S  E  E   E S S S  E E E      S S S E  E
e|-x--5-5-5--x--5--x--3-3-3--x--3-|-x-0-0-0--x-0-x------4-4-4-x--5--|
B|-x--5-5-5--x--5--x--3-3-3--x--3-|-x-1-1-1--x-1-x------5-5-5-x--5--|
G|-x--5-5-5--x--5--x--4-4-4--x--4-|-x-0-0-0--x-0-x------4-4-4-x--5--|
D|-x---------x-----x---------x----|-x--------x---x------------x-----|
A|-x---------x-----x---------x----|-x--------x---x------------x-----|
E|-x---------x-----x---------x----|-x--------x---x------------x-----|
|
 |                                               |-3-|
 | E  E      E  e  e  e      e  E   E E      E e S S S  e     E  E
e|---12---------------------------|------------8-7h8p7--------------|
B|----------13----12-13-----15-13-|---------10---------10-----9-10--|
G|-------------14-----------------|---9-----------------------------|
D|--------------------------------|---------------------------------|
A|--------------------------------|---------------------------------|
E|--------------------------------|---------------------------------|


      |-3-|           |-3-|
   E  S S S  E  E  E  S S S  E  E
e|--x--5-5-5--x--5--x--3-3-3--x--3----|
B|--x--5-5-5--x--5--x--3-3-3--x--3----|
G|--x--5-5-5--x--5--x--4-4-4--x--4----|
D|--x---------x-----x---------x-------|
A|--x---------x-----x---------x-------|
E|--x---------x-----x---------x-------|
|
 |  e  e      e  e  e  E      E  S  S
e|--------------12--------------15-15-|
B|-----------13----15-13-----12-------|
G|----14------------------------------|
D|-14---------------------------------|
A|------------------------------------|
E|------------------------------------|


      |--3---|                 |--3---|
   E  S S    S  E    E    E    S S    S E  E
e|--x--0-0----0--x----0----x----4-4----4-x--5--||
B|--x--1-1----1--x----1----x----5-5----5-x--5--||
G|--x--0-0----0--x----0----x----4-4----4-x--5--||
D|--x------------x---------x-------------x-----||
A|--x------------x---------x-------------x-----||
E|--x------------x---------x-------------x-----||
|
 |  E  S    S    S S  S  S S S  S    S   E  E
e|----13---13--------12-12-----10---10---------||
B|---------------------------------------9-10--||
G|-12-----------12---------9-------------------||
D|---------------------------------------------||
A|---------------------------------------------||
E|---------------------------------------------||


[Section 4]

  Am/C         G(type 2)       C/E        E/B          Am/C
  Gtr II
  E  S S  E  E  E  S S  E  E   E S S  E E E      S S E  E
  |  | |  |  |  |  | |  |  |   | | |  | | |      | | |  |
  x  / /  x  /  x  / /  x  /   x / /  x / x      / / x  /

   Gtr I
                                           |-3-|
   E  E    E  e  e  e    e  E   E E    E e S S S  e   E  E
e|---12-----------------------|----------8-7h8p7-----------|
B|--------13----12-13---15-13-|-------10---------10---9-10-|
G|-----------14---------------|---9------------------------|
D|----------------------------|----------------------------|
A|----------------------------|----------------------------|
E|----------------------------|----------------------------|
|
 | Gtr III
 | E  E    E  E  E  E    E  E   E E    E E E      E   E  E
e|----------------------------|----------------------------|
B|----------------------------|----------------------------|
G|---------0-------------0----|--------0--------------0----|
D|----2-------------0---------|---2---------------0--------|
A|-0----------0--2----------2-|-3--------3-2-------------2-|
E|----------------------------|----------------------------|


  Am/C         G(type 2)       C/E          E/B        Am/C
  E  S S  E  E  E  S S  E  E   E  S S  E  E  E  S S  E  E
  |  | |  |  |  |  | |  |  |   |  | |  |  |  |  | |  |  |
  x  / /  x  /  x  / /  x  /   x  / /  x  /  x  / /  x  /

   E  E    E  e  e  e    e  E   E  E    e  e  e  e    E  E
e|---12--------------------12-|--------15-13-12------------|
B|--------13----12-13---15----|-----------------15---13----|
G|-----------14---------------|---12--------------------14-|
D|----------------------------|----------------------------|
A|----------------------------|----------------------------|
E|----------------------------|----------------------------|
|
 | E  E    E  E  E  E    E  E   E  E    E  E  E  E    E  E
e|----------------------------|----------------------------|
B|----------------------------|-----------------------1----|
G|---------0-------------0----|---------0--------1---------|
D|----2-------------0---------|----2----------2------------|
A|-0----------0--2----------2-|-3----------3-------------0-|
E|----------------------------|----------------------------|


  Am/C           G(type 2)       C/E        E/B          Am/C
   E   S S  E  E  E  S S  E  E   E S S  E E E      S S E  E
   |   | |  |  |  |  | |  |  |   | | |  | | |      | | |  |
   x   / /  x  /  x  / /  x  /   x / /  x / x      / / x  /

                                             |-3-|
    E   E    E  e  e  e    e  E   E E    E e S S S  e   E  E
e|-----12-----------------------|----------8-7h8p7-----------|
B|----------13----12-13---15-13-|-------10---------10---9-10-|
G|-------------14---------------|---9------------------------|
D|------------------------------|----------------------------|
A|------------------------------|----------------------------|
E|------------------------------|----------------------------|
|
 | +E   E    E  E  E  E    E  E   E E    E E E      E   E  E
e|------------------------------|----------------------------|
B|------------------------------|----------------------------|
G|-----------0-------------0----|--------0--------------0----|
D|------2-------------0---------|---2---------------0--------|
A|-(0)----------0--2----------2-|-3--------3-2-------------2-|
E|------------------------------|----------------------------|


  Am/C          G(type 2)
   E  S S  E  E  E  S S  E  E
   |  | |  |  |  |  | |  |  |
   x  / /  x  /  x  / /  x  /

    e  e    e  e  e  E    E  S  S
e|------------12------------15-15-|
B|---------13----15-13---12-------|
G|----14--------------------------|
D|-14-----------------------------|
A|--------------------------------|
E|--------------------------------|
|
 |  E  E    E  E  E  E    E  E
e|--------------------------------|
B|--------------------------------|
G|----------0-------------0-------|
D|-----2-------------0------------|
A|--0----------0--2----------2S===|
E|--------------------------------|


[D.S.S. al Coda]

  C
                                 |-3-|  |-3-|
   e  E     H                    S S S  S S S
   |                             | | |  | | |
   /                             x x x  x x x

    E  S  S  S  S  S  S S S  S  S E      E
e|----13-13-------12-12-----10-10--------------||
B|--------------------------------9-----10-----||
G|-12-------12----------9----------------------||
D|---------------------------------------------||
A|---------------------------------------------||
E|---------------------------------------------||
|
 |  e  E     H.
e|---------------------------------------------||
B|---------------------------------------------||
G|--5------------------------------------------||
D|--5------------------------------------------||
A|--3------------------------------------------||
E|---------------------------------------------||


[Section 5]

   Am                  G
   Gtr II
   E    S  S S S  S  S S S T T S S S S S
e|-5----5--5-x-5--5--5-3-3-3-3-3-x-3-3-3-|
B|-5----5--5-x-5--5--5-3-3-3-3-3-x-3-3-3-|
G|-5----5--5-x-5--5--5-4-4-4-4-4-x-4-4-4-|
D|-7----7--7-x----7--7-5---5-5-5-x-5-5-5-|
A|-7----7--7-x----7--7-5---5-5-5-x-5-5-5-|
E|-5----5--5-x----5--5-3---3-3-3-x-3-3-3-|
|
 | Gtr I
 | S S  S  S S S  S  S S S S   S S S S S
e|-x-x--8--8-x-x--8--8-x-x-7---7-x-x-7-7-|
B|-x-x-10-10-x-x-10-10-x-x-8---8-x-x-8-8-|
G|-x-x--9--9-x-x--9--9-x-x-7---7-x-x-7-7-|
D|---------------------------------------|
A|---------------------------------------|
E|---------------------------------------|


   Copen             Eopen
   S S T T S S S S S S S T T S S S T T S
e|-0-0-0-0-0-x-0-0-0-0-0-0-0-0-x-0-0-0-0-|
B|-1-1-1-1-1-x-1-1-1-0-0-0-0-0-x-0-0-0-0-|
G|-0-0-0-0-0-x-0-0-0-1-1-1-1-1-x-1-1-1-1-|
D|-2---2-2-2-x-2-2-2-2---2-2-2-x-2-2-2-2-|
A|-3---3-3-3-x-3-3-3-2---2-2-2-x-2-2-2-2-|
E|-------------------0---0-0-0-x-0-0-0-0-|
|
 | S S S   S S S S S S S S   S S S S   S
e|-x-x-8---8-x-x-8-8-x-x-7---7-x-x-7---7-|
B|-x-x-8---8-x-x-8-8-x-x-9---9-x-x-9---9-|
G|-x-x-9---9-x-x-9-9-x-x-9---9-x-x-9---9-|
D|---------------------------------------|
A|---------------------------------------|
E|---------------------------------------|


   E    S  S S S  S  S S S T T S S S S S
e|-5----5--5-x-5--5--5-3-3-3-3-3-x-3-3-3-|
B|-5----5--5-x-5--5--5-3-3-3-3-3-x-3-3-3-|
G|-5----5--5-x-5--5--5-4-4-4-4-4-x-4-4-4-|
D|-7----7--7-x-7--7--7-5-5-5-5-5-x-5-5-5-|
A|-7----7--7-x-7--7--7-5-5-5-5-5-x-5-5-5-|
E|-5----5--5-x-5--5--5-3-3-3-3-3-x-3-3-3-|
|
 | S S  S  S S S  S  S S S S   S S S S S
e|-x-x--8--8-x-x--8--8-x-x-7---7-x-x-7-7-|
B|-x-x-10-10-x-x-10-10-x-x-8---8-x-x-8-8-|
G|-x-x--9--9-x-x--9--9-x-x-7---7-x-x-7-7-|
D|---------------------------------------|
A|---------------------------------------|
E|---------------------------------------|


   S S T T S S S S S  S   S    T  T   S   S   S    T  T   S
e|-0-0-0-0-0-x-0-0-0--0---0----0--0---0---x---0----0--0---0--|
B|-1-1-1-1-1-x-1-1-1--0---0----0--0---0---x---0----0--0---0--|
G|-0-0-0-0-0-x-0-0-0--1---1----1--1---1---x---1----1--1---1--|
D|-2-2-2-2-2-x-2-2-2--2---2----2--2---2---x---2----2--2---2--|
A|-3-3-3-3-3-x-3-3-3--2---2----2--2---2---x---2----2--2---2--|
E|--------------------0---0----0--0---0---x---0----0--0---0--|
|
 | S S S   S S S S S  S   S    S      S   S   S    S      S
e|-x-x-8---8-x-x-8-8--x---x---12-----12---x---x---12-----12--|
B|-x-x-8---8-x-x-8-8--x---x---12-----12---x---x---12-----12--|
G|-x-x-9---9-x-x-9-9-(x)-(x)-(13)---(13)-(x)-(x)-(13)---(13)-|
D|-----------------------------------------------------------|
A|-----------------------------------------------------------|
E|-----------------------------------------------------------|


   E     S     S S S  S  S S S T T S S S S S
e|-5-----5-----5-x-5--5--5-3-3-3-3-3-x-3-3-3-|
B|-5-----5-----5-x-5--5--5-3-3-3-3-3-x-3-3-3-|
G|-5-----5-----5-x-5--5--5-4-4-4-4-4-x-4-4-4-|
D|-7-----7-----7-x-7--7--7-5-5-5-5-5-x-5-5-5-|
A|-7-----7-----7-x-7--7--7-5-5-5-5-5-x-5-5-5-|
E|-5-----5-----5-x-5--5--5-3-3-3-3-3-x-3-3-3-|
|
 | S  S  T  T  S S S  S  S S S S   S S S S S
e|-x--8--8--8--8-x-x--8--8-x-x-7---7-x-x-7-7-|
B|-x-10-10-10-10-x-x-10-10-x-x-8---8-x-x-8-8-|
G|-x-----9--9--9-x-x--9--9-x-x-7---7-x-x-7-7-|
D|-------------------------------------------|
A|-------------------------------------------|
E|-------------------------------------------|


   S S T T S S S S S S S T T S S S T T S
e|-0-0-0-0-0-x-0-0-0-0-0-0-0-0-x-0-0-0-0--|
B|-1-1-1-1-1-x-1-1-1-0-0-0-0-0-x-0-0-0-0--|
G|-0-0-0-0-0-x-0-0-0-1-1-1-1-1-x-1-1-1-1--|
D|-2-2-2-2-2-x-2-2-2-2-2-2-2-2-x-2-2-2-2--|
A|-3-3-3-3-3-x-3-3-3-2-2-2-2-2-x-2-2-2-2--|
E|-------------------0-0-0-0-0-x-0-0-0-0--|
|
 | S S T T S S S S S S S S   S S S S   S
e|-x-8-8-8-8-x-x-8-8-x-x-7---7-x-x-7---7--|
B|-x-8-8-8-8-x-x-8-8-x-x-9---9-x-x-9---9--|
G|-x---9-9-9-x-x-9-9-x-x-9---9-x-x-9---9--|
D|----------------------------------------|
A|----------------------------------------|
E|----------------------------------------|


   E     S     S S S  S  S S S T T S S S S S
e|-5-----5-----5-x-5--5--5-3-3-3-3-3-x-3-3-3-|
B|-5-----5-----5-x-5--5--5-3-3-3-3-3-x-3-3-3-|
G|-5-----5-----5-x-5--5--5-4-4-4-4-4-x-4-4-4-|
D|-7-----7-----7-x-7--7--7-5-5-5-5-5-x-5-5-5-|
A|-7-----7-----7-x-7--7--7-5-5-5-5-5-x-5-5-5-|
E|-5-----5-----5-x-5--5--5-3-3-3-3-3-x-3-3-3-|
|
 | S  S  T  T  S S S  S  S S S S   S S S S S
e|-x--8--8--8--8-x-x--8--8-x-x-7---7-x-x-7-7-|
B|-x-10-10-10-10-x-x-10-10-x-x-8---8-x-x-8-8-|
G|-x-----9--9--9-x-x--9--9-x-x-7---7-x-x-7-7-|
D|-------------------------------------------|
A|-------------------------------------------|
E|-------------------------------------------|


   S S T T S S S S S S S T T S S S S S
e|-0-0-0-0-0-x-0-0-0-0-0-0-0-0-x-0-0-0-||
B|-1-1-1-1-1-x-1-1-1-0-0-0-0-0-x-0-0-0-||
G|-0-0-0-0-0-x-0-0-0-1-1-1-1-1-x-1-1-1-||
D|-2-2-2-2-2-x-2-2-2-2-2-2-2-2-x-2-2-2-||
A|-3-3-3-3-3-x-3-3-3-2-2-2-2-2-x-2-2-2-||
E|-------------------0-0-0-0-0-x-0-0-0-||
|
 | S S T T S S S S S S S T T S S S S S
e|-x-8-8-8-8-x-x-8-8-x-4-4-4-4-4-4-4-4-||
B|-x-8-8-8-8-x-x-8-8-x-5-5-5-5-5-5-5-5-||
G|-x---9-9-9-x-x-9-9-x---4-4-4-4-4-4-4-||
D|-------------------------------------||
A|-------------------------------------||
E|-------------------------------------||


[Section 6]

   Amopen        Gopen
   Gtr II
   E S S T T S S E     S S S T T S T T S
e|-0-0-0-0-0-0-0-3-----3-3-3-3-3-3-3-3-3-|
B|-1-1-1-1-1-1-1-0-----0-0-0-0-0-0-0-0-0-|
G|-2-2-2-2-2-2-2-0-----0-0-0-0-0-0-0-0-0-|
D|-2-2-2-2-2-2-2-0-----0-0-0-0-0-0-0-0-0-|
A|-0-0-0-0-0-0-0-2-----2-2-2-2-2-2-2-2-2-|
E|---------------3-----3-3-3-3-3-3-3-3-3-|
|
 | Gtrs I, III
 | E S S S   S S S +S  S S S S   S E
e|-----0-------0---------0-------0-------|
B|---0-------0---------0-----0-----------|
G|-5-----5-------4-(4)-----4-------4-----|
D|---------------------------------------|
A|---------------------------------------|
E|---------------------------------------|


   Copen         Eopen
   E S S T T S S E     S S S T T S T T S
e|-0-0-0-0-0-0-0-0-----0-0-0-0-0-0-0-0-0-|
B|-1-1-1-1-1-1-1-0-----0-0-0-0-0-0-0-0-0-|
G|-0-0-0-0-0-0-0-1-----1-1-1-1-1-1-1-1-1-|
D|-2-2-2-2-2-2-2-2-----2-2-2-2-2-2-2-2-2-|
A|-3-3-3-3-3-3-3-2-----2-2-2-2-2-2-2-2-2-|
E|---------------0-----0-0-0-0-0-0-0-0-0-|
|
 | E S S S   S S S +S  S S S S   S E
e|-----0-------0---------0-------0-------|
B|---0-------0---------0-----0-----------|
G|-5-----5-------7-(7)-----7-------7-----|
D|---------------------------------------|
A|---------------------------------------|
E|---------------------------------------|


   Amopen        Gopen
   E S S T T S S E     S S S T T S T T S
e|-0-0-0-0-0-0-0-3-----3-3-3-3-3-3-3-3-3-|
B|-1-1-1-1-1-1-1-0-----0-0-0-0-0-0-0-0-0-|
G|-2-2-2-2-2-2-2-0-----0-0-0-0-0-0-0-0-0-|
D|-2-2-2-2-2-2-2-0-----0-0-0-0-0-0-0-0-0-|
A|-0-0-0-0-0-0-0-2-----2-2-2-2-2-2-2-2-2-|
E|---------------3-----3-3-3-3-3-3-3-3-3-|
|
 | E S S S   S S S +S  S S S S   S E
e|-----0-------0---------0-------0-------|
B|---0-------0---------0-----0-----------|
G|-5-----5-------4-(4)-----4-------4-----|
D|---------------------------------------|
A|---------------------------------------|
E|---------------------------------------|


   Copen         Eopen
   E S S T T S S E     S S S T T S T T S
e|-0-0-0-0-0-0-0-0-----0-0-0-0-0-0-0-0-0-|
B|-1-1-1-1-1-1-1-0-----0-0-0-0-0-0-0-0-0-|
G|-0-0-0-0-0-0-0-1-----1-1-1-1-1-1-1-1-1-|
D|-2-2-2-2-2-2-2-2-----2-2-2-2-2-2-2-2-2-|
A|-3-3-3-3-3-3-3-2-----2-2-2-2-2-2-2-2-2-|
E|---------------0-----0-0-0-0-0-0-0-0-0-|
|
 | E S S S   S S S +S  S S S S   S E
e|-----0-------0---------0-------0-------|
B|---0-------0---------0-----0-----------|
G|-5-----5-------9-(9)-----9-------9-----|
D|---------------------------------------|
A|---------------------------------------|
E|---------------------------------------|


   Amopen          Gopen
   S S S S T T S S E     S S S T T S T T S
e|-0-0-0-0-0-0-0-0-3-----3-3-3-3-3-3-3-3-3-|
B|-1-1-1-1-1-1-1-1-0-----0-0-0-0-0-0-0-0-0-|
G|-2-2-2-2-2-2-2-2-0-----0-0-0-0-0-0-0-0-0-|
D|-2-2-2-2-2-2-2-2-0-----0-0-0-0-0-0-0-0-0-|
A|-0-0-0-0-0-0-0-0-2-----2-2-2-2-2-2-2-2-2-|
E|-----------------3-----3-3-3-3-3-3-3-3-3-|
|
 | E   S S S   S S S +S  S S S S   S E
e|-------0-------0---------0-------0-------|
B|-----0-------0---------0-----0-----------|
G|-5-------5-------4-(4)-----4-------4-----|
D|-----------------------------------------|
A|-----------------------------------------|
E|-----------------------------------------|


   Copen         Eopen
   E S S T T S S E     S S S T T S T T S
e|-0-0-0-0-0-0-0-0-----0-0-0-0-0-0-0-0-0--|
B|-1-1-1-1-1-1-1-0-----0-0-0-0-0-0-0-0-0--|
G|-0-0-0-0-0-0-0-1-----1-1-1-1-1-1-1-1-1--|
D|-2-2-2-2-2-2-2-2-----2-2-2-2-2-2-2-2-2--|
A|-3-3-3-3-3-3-3-2-----2-2-2-2-2-2-2-2-2--|
E|---------------0-----0-0-0-0-0-0-0-0-0--|
|
 | E S S S   S S S +S  S S S S   S E
e|-----0-------0---------0-------0--------|
B|---0-------0---------0-----0------------|
G|-5-----5-------7-(7)-----7-------7------|
D|----------------------------------------|
A|----------------------------------------|
E|----------------------------------------|


   Amopen          Gopen
   S S S S T T S S E     S S S T T S T T S
e|-0-0-0-0-0-0-0-0-3-----3-3-3-3-3-3-3-3-3-|
B|-1-1-1-1-1-1-1-1-0-----0-0-0-0-0-0-0-0-0-|
G|-2-2-2-2-2-2-2-2-0-----0-0-0-0-0-0-0-0-0-|
D|-2-2-2-2-2-2-2-2-0-----0-0-0-0-0-0-0-0-0-|
A|-0-0-0-0-0-0-0-0-2-----2-2-2-2-2-2-2-2-2-|
E|-----------------3-----3-3-3-3-3-3-3-3-3-|
|
 | E   S S S   S S S +S  S S S S   S E
e|-------0-------0---------0-------0-------|
B|-----0-------0---------0-----0-----------|
G|-5-------5-------4-(4)-----4-------4-----|
D|-----------------------------------------|
A|-----------------------------------------|
E|-----------------------------------------|


   Copen         Eopen
   E S S T T S S E     S T T S E   T T S
e|-0-0-0-0-0-0-0-0-----0-0-0-0-x---0-0-0--||
B|-1-1-1-1-1-1-1-0-----0-0-0-0-x---0-0-0--||
G|-0-0-0-0-0-0-0-1-----1-1-1-1-x---1-1-1--||
D|-2-2-2-2-2-2-2-2-----2-2-2-2-x---2-2-2--||
A|-3-3-3-3-3-3-3-2-----2-2-2-2-x---2-2-2--||
E|---------------0-----0-0-0-0-x---0-0-0--||
|
 | E S S S   S S S +S  S S   S S S E
e|-----0-------0---------0-------0--------||
B|---0-------0---------0-------0----------||
G|-5-----5-------9-(9)-------9-----9------||
D|----------------------------------------||
A|----------------------------------------||
E|----------------------------------------||


[Section 7 Solo]

  Dm7
  Gtr I
   S  S  S  S  S  S S  S S  S  S  S  S S  S  S
   |  |  |  |  |  | |  | |  |  |  |  | |  |  |
   /  /  /  /  x  / /  / /  /  /  /  x /  /  /

   Gtr II
    S  S  S  S  S  S S  S S  S  S  S  S S  S  S
e|--5--5--5--5--x--5-5--5-x--5--5--5--x-5--5--5-|
B|--6--6--6--6--x--6-6--6-x--6--6--6--x-6--6--6-|
G|--5--5--5--5--x--5-5--5-x--5--5--5--x-5--5--5-|
D|--7--7--7--7--x--7-7--7-x--7--7--7--x-7--7--7-|
A|--5--5--5--5--x--5-5--5-x--5--5--5--x-5--5--5-|
E|----------------------------------------------|
|
 | Gtr III
 |  S  S  S  S  S  E    E    S  S  S  E    S  S
e|-------10-12-13-13---13---12-12-12-12---10-10-|
B|----10----------------------------------------|
G|-10-------------------------------------------|
D|----------------------------------------------|
A|----------------------------------------------|
E|----------------------------------------------|


  Dm7
   S      S S S S     S S S  S S S    S S  S  S   S
   |      | | | |     | | |  | | |    | |  |  |   |
   /      / / / x     / / /  / / /    / x  x  x   x

    S      S S S S     S S S  S S T T  S S  S  S   S
e|--x------5-5-5-x-----5-5-5--x-5-5-5--5-x----(7)-(7)--|
B|--x------6-6-6-x-----6-6-6--x-6-6-6--6-x----(9)-(9)--|
G|--x------5-5-5-x-----5-5-5--x-5-5-5--5-x----(7)-(7)--|
D|--x------7-7-7-x-----7-7-7--x-7-7-7--7-x----(9)-(9)--|
A|--x------5-5-5-x-----5-5-5--x-5-5-5--5-x----(7)-(7)--|
E|-----------------------------------------------------|
|
 |  T  +T  S S S T +T  S S S  S S S    S S  S  S   S
e|-10-(10)s8-8-8-8-(8)s7-7-8-10-8-7--------------------|
B|------------------------------------10-9-------------|
G|-----------------------------------------10--9---7---|
D|-----------------------------------------------------|
A|-----------------------------------------------------|
E|-----------------------------------------------------|


  E7VII
  S S S S  S S S S   S  S S S  S  S S   S
  | | | |  | | | |   |  | | |  |  | |   |
  / / / /  x / / /   /  / / /  x  / /   /

   S S S S  S S S S   S  S S S  S  S T T S
e|-7-7-7-7--x-7-7-7---x--7-7-7--x--7-7-7-7-|
B|-9-9-9-9--x-9-9-9---x--9-9-9--x--9-9-9-9-|
G|-7-7-7-7--x-7-7-7---x--7-7-7--x--7-7-7-7-|
D|-9-9-9-9--x-9-9-9---x--9-9-9--x--9-9-9-9-|
A|-7-7-7-7--x-7-7-7---x--7-7-7--x--7-7-7-7-|
E|-----------------------------------------|
|
 | S E   S  E   S T T S  S E   +E    E
e|-------7-10---8-7h8p7----7---(7)---------|
B|---9------------------10-----------------|
G|-9---------------------------------------|
D|-----------------------------------------|
A|-----------------------------------------|
E|-----------------------------------------|


   S  S S  S  S S  S  S  S S S    S S  S  S   S
   |  | |  |  | |  |  |  | | |    | |  |  |   |
   /  / /  /  x /  /  /  / / /    / x  x  x   x

    S  S S  S  S S  S  S  S S T T  S S  S  S   S
e|--7--7-7--7--x-7--7--7--x-7-7-7--7-x----(5)-(5)--|
B|--9--9-9--9--x-9--9--9--x-9-9-9--9-x----(6)-(6)--|
G|--7--7-7--7--x-7--7--7--x-7-7-7--7-x----(5)-(5)--|
D|--9--9-9--9--x-9--9--9--x-9-9-9--9-x----(7)-(7)--|
A|--7--7-7--7--x-7--7--7--x-7-7-7--7-x----(5)-(5)--|
E|-------------------------------------------------|
|
|  PM-------------|
|  S  S S  S  S S  S  S  S S S    S S  S  S   S
e|--------------------12-10-8-7--------------------|
B|---------------9-12-------------10-9-------------|
G|------------10-----------------------10--9---8---|
D|-------9-12--------------------------------------|
A|----11-------------------------------------------|
E|-12----------------------------------------------|


  Dm7
  S  S S  S  S  S    S S S  S     S  S  S     S  S    S
  |  | |  |  |  |    | | |  |     |  |  |     |  |    |
  /  / /  /  x  /    / / /  /     /  /  x     /  /    /

   S  S S  S  S  S    S S S  S     S  S  S     S  T T  S
e|-5--5-5--5--x--5----5-5-x--5-----5--5--x-----5--5-5--5-|
B|-6--6-6--6--x--6----6-6-x--6-----6--6--x-----6--6-6--6-|
G|-5--5-5--5--x--5----5-5-x--5-----5--5--x-----5--5-5--5-|
D|-7--7-7--7--x--7----7-7-x--7-----7--7--x-----7--7-7--7-|
A|-5--5-5--5--x--5----5-5-x--5-----5--5--x-----5--5-5--5-|
E|-------------------------------------------------------|
|
 | S  e    S  S.   S.   S S.    S.    S.    S.    S    S
e|---10---10-10----8----8-8----12----12----12----10---10-|
B|-------------------------------------------------------|
G|-7-----------------------------------------------------|
D|-------------------------------------------------------|
A|-------------------------------------------------------|
E|-------------------------------------------------------|


   S  S S  S S    S    S  S  S    S    S   S    S     S  S  S
   |  | |  | |    |    |  |  |    |    |   |    |     |  |  |
   /  / /  / x    /    /  /  /    /    /   /    x     x  x  x

    S  S S  S S    S    S  S  S    S    T T S    S     S  S  S
e|--5--5-5--5-x----5----5--5--x----5----5-5-5----x-------------------|
B|--6--6-6--6-x----6----6--6--x----6----6-6-6----x-------------------|
G|--5--5-5--5-x----5----5--5--x----5----5-5-5----x--------0----------|
D|--7--7-7--7-x----7----7--7--x----7----7-7-7----x--------0--0-------|
A|--5--5-5--5-x----5----5--5--x----5----5-5-5----x--------0--0-------|
E|--------------------------------------------------------0--0-------|
|
|          |----3----|          |------3------|
|  S  e    E    E    E    S.    E    E        E    S.    S  T  T
e|-10-13---13---13---12---12----12---16-------15---13----15-13h15p===|
B|-------------------------------------------------------------------|
G|-------------------------------------------------------------------|
D|-------------------------------------------------------------------|
A|-------------------------------------------------------------------|
E|-------------------------------------------------------------------|


  E7VII
   S S  S  S  S  S  S  S  S S  S    S  S  S  S  S
   | |  |  |  |  |  |  |  | |  |    |  |  |  |  |
   / /  /  /  x  /  /  /  / /  /    /  x  /  /  /

    S S  S  S  S  S  S  S  S S  T T  S  S  S  S  S
e|--7-7--7--7--x--7--7--7--7-7--7-7--7--x--7--7--7-|
B|--9-9--9--9--x--9--9--9--9-9--9-9--9--x--9--9--9-|
G|--7-7--7--7--x--7--7--7--7-7--7-7--7--x--7--7--7-|
D|--9-9--9--9--x--9--9--9--9-9--9-9--9--x--9--9--9-|
A|--7-7--7--7--x--7--7--7--7-7--7-7--7--x--7--7--7-|
E|-------------------------------------------------|
|
 |  E    S  S  S  S  S  S  E    S    S  S  S  S  S
e|-13---12-13-15-13-12-13-12---10---12-13-12-10-12-|
B|-------------------------------------------------|
G|-------------------------------------------------|
D|-------------------------------------------------|
A|-------------------------------------------------|
E|-------------------------------------------------|


   S S  S    S  S  S  S  S  S S   S     S S  S S   S
   | |  |    |  |  |  |  |  | |   |     | |  | |   |
   / /  /    /  x  /  /  /  / /   /     / x  x x   x

    S S  T T  S  S  S  S  S  S S   T   T S S  S S   S
e|--7-7--7-7--7--x--7--7--7--7-7---7---7-7-x------------|
B|--9-9--9-9--9--x--9--9--9--9-9---9---9-9-x------------|
G|--7-7--7-7--7--x--7--7--7--7-7---7---7-7-x------------|
D|--9-9--9-9--9--x--9--9--9--9-9---9---9-9-x----0-------|
A|--7-7--7-7--7--x--7--7--7--7-7---7---7-7-x----0---0---|
E|--------------------------------------------x-0---0---|
|
 |                           ~~
 |  E    S    S  S  S  S  S  E    +E       E.       S
e|-10--------10-12-10----10-----------------------------|
B|------13------------13----12---(12)\------------(10)--|
G|------------------------------------------------------|
D|------------------------------------------------------|
A|------------------------------------------------------|
E|------------------------------------------------------|


  Dm7
  S  S  S  S S  S S   S  S  S  S  S S  S S   S
  |  |  |  | |  | |   |  |  |  |  | |  | |   |
  /  /  /  / x  / /   /  /  /  /  / x  / /   /

   S  S  S  S S  S S   S  S  S  S  S S  S T T S
e|-5--5--5--5-x--5-5---5--x--5--5--5-x--5-5-5-5-|
B|-6--6--6--6-x--6-6---6--x--6--6--6-x--6-6-6-6-|
G|-5--5--5--5-x--5-5---5--x--5--5--5-x--5-5-5-5-|
D|-7--7--7--7-x--7-7---7--x--7--7--7-x--7-7-7-7-|
A|-5--5--5--5-x--5-5---5--x--5--5--5-x--5-5-5-5-|
E|----------------------------------------------|
|
 | S  S  S  S S  S S   S  S  S  S  S S  S E
e|-8----------8-10-8--(8)-8----------8-12-8-----|
B|---10----10--------(10)---10----10------------|
G|------10---------------------10---------------|
D|----------------------------------------------|
A|----------------------------------------------|
E|----------------------------------------------|


  S  S  S  S S  S S S  S  S  S   S S  S  S   S
  |  |  |  | |  | | |  |  |  |   | |  |  |   |
  /  /  /  / x  / / /  /  /  /   / x  x  x   x

   S  S  S  S S  S S S  S  S  T T S S  S  S   S
e|-x--5--5--5-x--5-5-5--x--5--5-5-5-x----(7)-(7)-|
B|-x--6--6--6-x--6-6-6--x--6--6-6-6-x----(9)-(9)-|
G|-x--5--5--5-x--5-5-5--x--5--5-5-5-x----(7)-(7)-|
D|-x--7--7--7-x--7-7-7--x--7--7-7-7-x----(9)-(9)-|
A|-x--5--5--5-x--5-5-5--x--5--5-5-5-x----(7)-(7)-|
E|-----------------------------------------------|
|
 | S  S  S  S S  S S S  S  S  S   S S  S  S   S
e|-8----------8-10-8-0-10-12-10---0-8-10--8---0--|
B|---10----10------------------------------------|
G|------10---------------------------------------|
D|-----------------------------------------------|
A|-----------------------------------------------|
E|-----------------------------------------------|


  E7VII
  S S S S S S S  S  S S S S S  S S S   S S S   S S S S S S  S S S S S S S
  | | | | | | |  |  | | | | |  | | |   | | |   | | | | | |  | | | | | | |
  / / / / x / /  /  / / / / x  / / /   / / /   / x / / / /  / / / x x x x

   S S S S S S S  S  S S S S S  S S S   S S T T S S S S S S  S S S S S S S
e|-7-7-7-7-x-7-7--7--x-7-7-7-x--7-7-7-|-x-7-7-7-7-x-7-7-7-x--7-7-7-x--------|
B|-9-9-9-9-x-9-9--9--x-9-9-9-x--9-9-9-|-x-9-9-9-9-x-9-9-9-x--9-9-9-x--------|
G|-7-7-7-7-x-7-7--7--x-7-7-7-x--7-7-7-|-x-7-7-7-7-x-7-7-7-x--7-7-7-x--------|
D|-9-9-9-9-x-9-9--9--x-9-9-9-x--9-9-9-|-x-9-9-9-9-x-9-9-9-x--9-9-9-x---0----|
A|-7-7-7-7-x-7-7--7--x-7-7-7-x--7-7-7-|-x-7-7-7-7-x-7-7-7-x--7-7-7-x---0-0--|
E|------------------------------------|------------------------------x-0-0--|
|
 | S S S S S S S  S  S S S S S  S E     S S S   S S S S S S  S S S S S S S
e|-7-------7-8-7-(7)-7-------7-10-7---|-7---------7-8-7-0-8-10-8-0-7-8-7-0--|
B|---9---9-------(9)---9---9----------|---9-----9---------------------------|
G|-----9-----------------9------------|-----9-------------------------------|
D|------------------------------------|-------------------------------------|
A|------------------------------------|-------------------------------------|
E|------------------------------------|-------------------------------------|


  Dm7
  S S S S S S S  S  S S S S S S S   S   S S S S S S S S S S S   S S S S S
  | | | | | | |  |  | | | | | | |   |   | | | | | | | | | | |   | | | | |
  / / / / x / /  /  / / / / x / /   /   / / / / x / / / / / /   / x x x x

   S S S S S S S  S  S S S S S S T T S   S S S S S S S S S S T T S S S S S
e|-5-5-5-5-x-5-5--5--x-5-5-5-x-5-5-5-5-|-x-5-5-5-x-5-5-5-x-5-5-5-5-x-------|
B|-6-6-6-6-x-6-6--6--x-6-6-6-x-6-6-6-6-|-x-6-6-6-x-6-6-6-x-6-6-6-6-x-------|
G|-5-5-5-5-x-5-5--5--x-5-5-5-x-5-5-5-5-|-x-5-5-5-x-5-5-5-x-5-5-5-5-x---0---|
D|-7-7-7-7-x-7-7--7--x-7-7-7-x-7-7-7-7-|-x-7-7-7-x-7-7-7-x-7-7-7-7-x---0-0-|
A|-5-5-5-5-x-5-5--5--x-5-5-5-x-5-5-5-5-|-x-5-5-5-x-5-5-5-x-5-5-5-5-x---0-0-|
E|-------------------------------------|-------------------------------0-0-|
|
 | S S S S S S S  S  S S S S S S E       S S S S S S S S S S S   S S S S S
e|-5-------5-7-5-(5)-5-------5-8-5-----|-5-------5-7-5-0-7-8-7---0-5-7-5-0-|
B|---6---6-------(6)---6---6-----------|---6---6---------------------------|
G|-----7-----------------7-------------|-----7-----------------------------|
D|-------------------------------------|-----------------------------------|
A|-------------------------------------|-----------------------------------|
E|-------------------------------------|-----------------------------------|


  E7VII
  S S S S S S S S S S S S S  S S S
  | | | | | | | | | | | | |  | | |
  / / / / / / / / / / / / /  / / /

   S S S S S S S S S S S S S  S S S
e|-0-0-0-0-0-0-0-0-0-0-0-0-0--0-0-0-|
B|-0-0-0-0-0-0-0-0-0-0-0-0-0--0-0-0-|
G|-1-1-1-1-1-1-1-1-1-1-1-1-1--1-1-1-|
D|-2-2-2-2-2-2-2-2-2-2-2-2-2--2-2-2-|
A|-2-2-2-2-2-2-2-2-2-2-2-2-2--2-2-2-|
E|-0-0-0-0-0-0-0-0-0-0-0-0-0--0-0-0-|
|
 | S S S S S S S S S S S S S  S S S
e|-4-5-4-0-5-7-5-0-7-8-7-0-8-10-8-0-|
B|----------------------------------|
G|----------------------------------|
D|----------------------------------|
A|----------------------------------|
E|----------------------------------|


                                                               D.S.
   |--3--|  |--3--|  |--3--|  |--3--|  |--3--|  |--3--|
   S  S  S  S  S  S  S  S  S  E     S  S  S  S  S  S  S  Q
   |  |  |  |  |  |  |  |  |  |     |  |  |  |  |  |  |  |
   /  /  /  /  /  /  /  /  /  /     /  /  /  /  /  /  /  /

   |--3--|  |--3--|  |--3--|  |--3--|  |--3--|  |--3--|
   S  S  S  S  S  S  S  S  S  S  S  S  S  S  S  S  S  S  E   S   S
e|--0--0--0--0--0--0--0--0--0--0--0--0--0--0--0--0--0--0--0---0------||
B|--0--0--0--0--0--0--0--0--0--0--0--0--0--0--0--0--0--0--0---0------||
G|--1--1--1--1--1--1--1--1--1--1--1--1--1--1--1--1--1--1--1---1------||
D|--2--2--2--2--2--2--2--2--2--2--2--2--2--2--2--2--2--2--2---2---2--||
A|--2--2--2--2--2--2--2--2--2--2--2--2--2--2--2--2--2--2--2---2---2--||
E|--0--0--0--0--0--0--0--0--0--0--0--0--0--0--0--0--0--0--0---0---0--||
|
|  |--3--|  |--3--|  |--3--|  |--3--|  |--3--|  |--3--|
|  S  S  S  S  S  S  S  S  S  S  S  S  S  S  S  S  S  S  E  +E
e|-12-12-12-12-12-12-13-13-13-13-13-13-15-15-15-15-15-15-16-(16)\----||
B|-------------------------------------------------------------------||
G|-------------------------------------------------------------------||
D|-------------------------------------------------------------------||
A|-------------------------------------------------------------------||
E|-------------------------------------------------------------------||


   &
   Am              G
   e    S S  S S S e   S T T S E    T  T   S
e|-5----x-x--x-x-x-3---x-x-x-x-x----x--x---x--|
B|-5----x-x--x-x-x-3---x-x-x-x-x----x--x---x--|
G|-5----x-x--x-x-x-4---x-x-x-x-x----x--x---x--|
D|-7----x-x--x-x-x-5---x-x-x-x-x----x--x--(0)-|
A|-7----x-x--x-x-x-5---x-x-x-x-x----x--x--(0)-|
E|-5----x-x--x-x-x-3---x-x-x-x-x----x-(0)-(0)-|
|
 | PM   PM---------|   PM----------------------
 | S S  S S  S S S S S S S   S S S  S      S
e|-8-----------8---7-----------7---10---------|
B|-----10---10---------8-----8----------------|
G|--------9--------------7--------------------|
D|--------------------------------------------|
A|--------------------------------------------|
E|--------------------------------------------|


   C             E
   e   S S S S S  E      S T T S  E  E
e|---------------------------------------||
B|-5---x-x-x-x-x--9------9-9-9-9--x------||
G|-5---x-x-x-x-x--9------9-9-9-9--x------||
D|-5---x-x-x-x-x--9------9-9-9-9--x--2---||
A|-3---x-x-x-x-x--7------7-7-7-7--x--2---||
E|----------------------------------(0)--||
|
|-|   PM------|         PM----|
| S S S S S S S  S  +S  S S   S  E  E
e|-8---------8---10-(10)-7---------------||
B|-----8---8---------------9---8---------||
G|-------9-----------------------10--9---||
D|---------------------------------------||
A|---------------------------------------||
E|---------------------------------------||


[Section 8]

   Am                  G
   E    S  S S S  S  S S S T T S S S S S
e|-5----5--5-x-5--5--5-3-3-3-3-3-x-3-3-3-|
B|-5----5--5-x-5--5--5-3-3-3-3-3-x-3-3-3-|
G|-5----5--5-x-5--5--5-4-4-4-4-4-x-4-4-4-|
D|-7----7--7-x----7--7-5---5-5-5-x-5-5-5-|
A|-7----7--7-x----7--7-5---5-5-5-x-5-5-5-|
E|-5----5--5-x----5--5-3---3-3-3-x-3-3-3-|
|
 | S S  S  S S S  S  S S S S   S S S S S
e|-x-x--8--8-x-x--8--8-x-x-7---7-x-x-7-7-|
B|-x-x-10-10-x-x-10-10-x-x-8---8-x-x-8-8-|
G|-x-x--9--9-x-x--9--9-x-x-7---7-x-x-7-7-|
D|---------------------------------------|
A|---------------------------------------|
E|---------------------------------------|


   Copen             Eopen
   S S T T S S S S S S S T T S S S T T S
e|-0-0-0-0-0-x-0-0-0-0-0-0-0-0-x-0-0-0-0-|
B|-1-1-1-1-1-x-1-1-1-0-0-0-0-0-x-0-0-0-0-|
G|-0-0-0-0-0-x-0-0-0-1-1-1-1-1-x-1-1-1-1-|
D|-2---2-2-2-x-2-2-2-2---2-2-2-x-2-2-2-2-|
A|-3---3-3-3-x-3-3-3-2---2-2-2-x-2-2-2-2-|
E|-------------------0---0-0-0-x-0-0-0-0-|
|
 | S S S   S S S S S S S S   S S S S   S
e|-x-x-8---8-x-x-8-8-x-x-7---7-x-x-7---7-|
B|-x-x-8---8-x-x-8-8-x-x-9---9-x-x-9---9-|
G|-x-x-9---9-x-x-9-9-x-x-9---9-x-x-9---9-|
D|---------------------------------------|
A|---------------------------------------|
E|---------------------------------------|


   Am                  G
   E    S  S S S  S  S S S T T S S S S S
e|-5----5--5-x-5--5--5-3-3-3-3-3-x-3-3-3-|
B|-5----5--5-x-5--5--5-3-3-3-3-3-x-3-3-3-|
G|-5----5--5-x-5--5--5-4-4-4-4-4-x-4-4-4-|
D|-7----7--7-x-7--7--7-5-5-5-5-5-x-5-5-5-|
A|-7----7--7-x-7--7--7-5-5-5-5-5-x-5-5-5-|
E|-5----5--5-x-5--5--5-3-3-3-3-3-x-3-3-3-|
|
 | S S  S  S S S  S  S S S S   S S S S S
e|-x-x--8--8-x-x--8--8-x-x-7---7-x-x-7-7-|
B|-x-x-10-10-x-x-10-10-x-x-8---8-x-x-8-8-|
G|-x-x--9--9-x-x--9--9-x-x-7---7-x-x-7-7-|
D|---------------------------------------|
A|---------------------------------------|
E|---------------------------------------|


   Copen             Eopen
   S S T T S S S S S S S  T T  S S S  T T  S
e|-0-0-0-0-0-x-0-0-0-0-0--0-0--0-x-0--0-0--0-|
B|-1-1-1-1-1-x-1-1-1-0-0--0-0--0-x-0--0-0--0-|
G|-0-0-0-0-0-x-0-0-0-1-1--1-1--1-x-1--1-1--1-|
D|-2-2-2-2-2-x-2-2-2-2-2--2-2--2-x-2--2-2--2-|
A|-3-3-3-3-3-x-3-3-3-2-2--2-2--2-x-2--2-2--2-|
E|-------------------0-0--0-0--0-x-0--0-0--0-|
|
 | S S S   S S S S S S S  S    S S S  S    S
e|-x-x-8---8-x-x-8-8-x-x-12---12-x-x-12---12-|
B|-x-x-8---8-x-x-8-8-x-x-12---12-x-x-12---12-|
G|-x-x-9---9-x-x-9-9-x-x-13---13-x-x-13---13-|
D|-------------------------------------------|
A|-------------------------------------------|
E|-------------------------------------------|


   Am                     G
   E     S     S S S  S S S S T T S S S S S
e|-5-----5-----5-x-5--5-5-3-3-3-3-3-x-3-3-3-|
B|-5-----5-----5-x-5--5-5-3-3-3-3-3-x-3-3-3-|
G|-5-----5-----5-x-5--5-5-4-4-4-4-4-x-4-4-4-|
D|-7-----7-----7-x-7--7-7-5-5-5-5-5-x-5-5-5-|
A|-7-----7-----7-x-7--7-7-5-5-5-5-5-x-5-5-5-|
E|-5-----5-----5-x-5--5-5-3-3-3-3-3-x-3-3-3-|
|
 | S  S  T  T  S S S  E   S S T T S S S E
e|-x--8--8--8--8-x-x--8---x-7-7-7-7-x-x-7---|
B|-x-10-10-10-10-x-x-10---x-8-8-8-8-x-x-8---|
G|-x-----9--9--9-x-x--9---x---7-7-7-x-x-7---|
D|------------------------------------------|
A|------------------------------------------|
E|------------------------------------------|


   Copen             Eopen
   S S T T S S S S S S S T T S S S T T S
e|-0-0-0-0-0-x-0-0-0-0-0-0-0-0-x-0-0-0-0--|
B|-1-1-1-1-1-x-1-1-1-0-0-0-0-0-x-0-0-0-0--|
G|-0-0-0-0-0-x-0-0-0-1-1-1-1-1-x-1-1-1-1--|
D|-2-2-2-2-2-x-2-2-2-2-2-2-2-2-x-2-2-2-2--|
A|-3-3-3-3-3-x-3-3-3-2-2-2-2-2-x-2-2-2-2--|
E|-------------------0-0-0-0-0-x-0-0-0-0--|
|
 | S S T T S S S E   S S T T S S S E
e|-x-8-8-8-8-x-x-8---x-7-7-7-7-x-x-7------|
B|-x-8-8-8-8-x-x-8---x-9-9-9-9-x-x-9------|
G|-x---9-9-9-x-x-9---x---9-9-9-x-x-9------|
D|----------------------------------------|
A|----------------------------------------|
E|----------------------------------------|


   Am                     G                   Copen           Eopen
   E     S     S S S  S S S S T T S S S S S   S S T T S S S E E E E E
e|-5-----5-----5-x-5--5-5-3-3-3-3-3-x-3-3-3-|-0-0-0-0-0-x-0-0-0-0-0-0--||
B|-5-----5-----5-x-5--5-5-3-3-3-3-3-x-3-3-3-|-1-1-1-1-1-x-1-1-0-0-0-0--||
G|-5-----5-----5-x-5--5-5-4-4-4-4-4-x-4-4-4-|-0-0-0-0-0-x-0-0-1-1-1-1--||
D|-7-----7-----7-x-7--7-7-5-5-5-5-5-x-5-5-5-|-2-2-2-2-2-x-2-2-2-2-2-2--||
A|-7-----7-----7-x-7--7-7-5-5-5-5-5-x-5-5-5-|-3-3-3-3-3-x-3-3-2-2-2-2--||
E|-5-----5-----5-x-5--5-5-3-3-3-3-3-x-3-3-3-|-----------------0-0-0-0--||
|
 | S  S  T  T  S S S  E   S S T T S S S E     S S T T S S S E E E E E
e|-x--8--8--8--8-x-x--8---x-7-7-7-7-x-x-7---|-x-8-8-8-8-x-x-8-4-4-4-4--||
B|-x-10-10-10-10-x-x-10---x-8-8-8-8-x-x-8---|-x-8-8-8-8-x-x-8-5-5-5-5--||
G|-x-----9--9--9-x-x--9---x---7-7-7-x-x-7---|-x---9-9-9-x-x-9-4-4-4-4--||
D|------------------------------------------|--------------------------||
A|------------------------------------------|--------------------------||
E|------------------------------------------|--------------------------||


[Section 9 Outro]

        |-3-| |-3-|       |-3-| |-3-|         |-3-| |-3-|       |-3-| |-3-|

   E S S S S S S S S E S S S S S S S S   E S S S S S S S S E S S S S S S S S
e|-x-x-x-x-x-x-x-x-x-x-x-x-x-x-x-x-x-x-|-x-x-x-x-x-x-x-x-x-x-x-x-x-x-x-x-x-x-|
B|-x-x-x-x-x-x-x-x-x-x-x-x-x-x-x-x-x-x-|-x-x-x-x-x-x-x-x-x-x-x-x-x-x-x-x-x-x-|
G|-x-x-x-x-x-x-x-x-x-x-x-x-x-x-x-x-x-x-|-x-x-x-x-x-x-x-x-x-x-x-x-x-x-x-x-x-x-|
D|-x-x-x-x-x-x-x-x-x-x-x-x-x-x-x-x-x-x-|-x-x-x-x-x-x-x-x-x-x-x-x-x-x-x-x-x-x-|
A|-x-x-x-x-x-x-x-x-x-x-x-x-x-x-x-x-x-x-|-x-x-x-x-x-x-x-x-x-x-x-x-x-x-x-x-x-x-|
E|-x-x-x-x-x-x-x-x-x-x-x-x-x-x-x-x-x-x-|-x-x-x-x-x-x-x-x-x-x-x-x-x-x-x-x-x-x-|


        |-3-| |-3-|       |-3-| |-3-|

   E S S S S S S S S E S S S S S S S S
e|-x-x-x-x-x-x-x-x-x-x-x-x-x-x-x-x-x-x-|
B|-x-x-x-x-x-x-x-x-x-x-x-x-x-x-x-x-x-x-|
G|-x-x-x-x-x-x-x-x-x-x-x-x-x-x-x-x-x-x-|
D|-x-x-x-x-x-x-x-x-x-x-x-x-x-x-x-x-x-x-|
A|-x-x-x-x-x-x-x-x-x-x-x-x-x-x-x-x-x-x-|
E|-x-x-x-x-x-x-x-x-x-x-x-x-x-x-x-x-x-x-|


        |-3-| |-3-| |-3-| |-3-| |-3-| |-3-|

   E S S S S S S S S S S S S S S S S S S S S
e|-x-x-x-x-x-x-x-x-x-x-x-x-x-x-x-x-x-x-x-x-x--||
B|-x-x-x-x-x-x-x-x-x-x-x-x-x-x-x-x-x-x-x-x-x--||
G|-x-x-x-x-x-x-x-x-x-x-x-x-x-x-x-x-x-x-x-x-x--||
D|-x-x-x-x-x-x-x-x-x-x-x-x-x-x-x-x-x-x-x-x-x--||
A|-x-x-x-x-x-x-x-x-x-x-x-x-x-x-x-x-x-x-x-x-x--||
E|-x-x-x-x-x-x-x-x-x-x-x-x-x-x-x-x-x-x-x-x-x--||


              |-3-| |-3-|                     |-3-| |-3-|   |-3-|

   E S S E S S S S S S S S E S S   E S S E S S S S S S S S E S S S
e|-5-x-x-x-x-x-x-x-x-x-x-x-x-x-x-|-0-x-x-x-x-x-x-x-x-x-x-x-x-x-x-x-|
B|-5-x-x-x-x-x-x-x-x-x-x-x-x-x-x-|-0-x-x-x-x-x-x-x-x-x-x-x-x-x-x-x-|
G|-5-x-x-x-x-x-x-x-x-x-x-x-x-x-x-|-1-x-x-x-x-x-x-x-x-x-x-x-x-x-x-x-|
D|-7-x-x-x-x-x-x-x-x-x-x-x-x-x-x-|-2-x-x-x-x-x-x-x-x-x-x-x-x-x-x-x-|
A|-7-x-x-x-x-x-x-x-x-x-x-x-x-x-x-|-2-x-x-x-x-x-x-x-x-x-x-x-x-x-x-x-|
E|-5-x-x-x-x-x-x-x-x-x-x-x-x-x-x-|-0-x-x-x-x-x-x-x-x-x-x-x-x-x-x-x-|


              |-3-| |-3-|   |-3-|                   |-3-|

   E S S E S S S S S S S S E S S S   E E E E E S S E S S S
e|-5-x-x-x-x-x-x-x-x-x-x-x-x-x-x-x-|-x-0-x-0-x-0-0-x-------|
B|-5-x-x-x-x-x-x-x-x-x-x-x-x-x-x-x-|-x-0-x-0-x-0-0-x-------|
G|-5-x-x-x-x-x-x-x-x-x-x-x-x-x-x-x-|-x-1-x-1-x-1-1-x-------|
D|-7-x-x-x-x-x-x-x-x-x-x-x-x-x-x-x-|-x-2-x-2-x-2-2-x-2-2---|
A|-7-x-x-x-x-x-x-x-x-x-x-x-x-x-x-x-|-x-2-x-2-x-2-2-x-2-2-2-|
E|-5-x-x-x-x-x-x-x-x-x-x-x-x-x-x-x-|-x-0-x-0-x-0-0-x-0-0-0-|


              |-3-| |-3-|   |-3-|               |-3-| |-3-| |-3-| |-3-|

   E S S E S S S S S S S S E S S S   E S S E S S S S S S S S S S S S S S
e|-5-x-x-x-x-x-x-x-x-x-x-x-x-------|-0-x-x-x-x-x-x-x-x-x-x-x-x-x-x-x-x-x-|
B|-5-x-x-x-x-x-x-x-x-x-x-x-x-------|-0-x-x-x-x-x-x-x-x-x-x-x-x-x-x-x-x-x-|
G|-5-x-x-x-x-x-x-x-x-x-x-x-x-------|-1-x-x-x-x-x-x-x-x-x-x-x-x-x-x-x-x-x-|
D|-7-x-x-x-x-x-x-x-x-x-x-x-x-x-0-0-|-2-x-x-x-x-x-x-x-x-x-x-x-x-x-x-x-x-x-|
A|-7-x-x-x-x-x-x-x-x-x-x-x-x-x-0-0-|-2-x-x-x-x-x-x-x-x-x-x-x-x-x-x-x-x-x-|
E|-5-x-x-x-x-x-x-x-x-x-x-x-x-0-0-0-|-0-x-x-x-x-x-x-x-x-x-x-x-x-x-x-x-x-x-|


              |-3-| |-3-|

   E S S E S S S S S S S S E S S
e|-5-x-x-x-x-x-x-x-x-x-x-x-x-x-x-|
B|-5-x-x-x-x-x-x-x-x-x-x-x-x-x-x-|
G|-5-x-x-x-x-x-x-x-x-x-x-x-x-x-x-|
D|-7-x-x-x-x-x-x-x-x-x-x-x-x-x-x-|
A|-7-x-x-x-x-x-x-x-x-x-x-x-x-x-x-|
E|-5-x-x-x-x-x-x-x-x-x-x-x-x-x-x-|


   Gtr II
   S S S S S S S S S S S S S S S S   S E S Q  H
e|---------------------------------|-0-0-----------*|
B|---------------------------------|-1-1-----------*|
G|-9-x-x-7-x-x-5-x-x-4-x-x-3-x-x-x-|-2-2-----------*|
D|-9-x-x-7-x-x-5-x-x-4-x-x-3-x-x-x-|-2-2-----------*|
A|-7-x-x-5-x-x-3-x-x-2-x-x-1-x-x-x-|-0-0-----------*|
E|---------------------------------|---------------*|
|
 | Gtr III
 | S S S S S S S S S S S S S S S S   S E S Q  H
e|---------------------------------|---------------*|
B|---------------------------------|---------------*|
G|-9---x-7---x-5---x-4---x-3---x-x-|-2-2-----------*|
D|-9---x-7---x-5---x-4---x-3---x-x-|-2-2-----------*|
A|-7---x-5---x-3---x-2---x-1---x-x-|-0-0-----------*|
E|---------------------------------|---------------*|




************************************

| x    Dead note
| (n)  Ghost note
| h    Hammer-on
| p    Pull-off 

************************************

            
            
Suggest correction
Creating personal tab
Creating personal tab
You can edit any tab online and save it as your Personal.

You can edit, replace or remove any tab part or add personal notes – all changes will be seen only by you.

Personal tabs can be accessed anytime from any device, even offline.
Learn more »
comments
print report bad tab
7 comments total. Showing first comments.
0 reply
Thestupidlowlif 18 Jul 11, 2008 09:22 AM

Good job tabbing it.

0 reply
Crushy 10 Jul 07, 2010 01:43 PM

Is this worth attempting on a steel string? I just had a razz and I think my hands are bleeding.

0 reply
Izaak247 120 Jun 11, 2012 09:38 AM

It's weird have awkward this is to play

guest
You may want to rate the tab now too:
select rating
Wanna post a correction for this tab? Suggest correction