Oops, an error
Loading. Please wait.

430 Am Apparently They Were Travelling Abroad Tab

version 1
version 1

Whole song

Interactive

1,984 views 9 this week
no commentswrite comment
1 2 3 4 5
2 more votes to show rating
add to favorites
launch autoscroll
font size
0
reset
how to read this tab
guitar tuner
Autoscroll
slow
fast
+/-
esc
set tempo
stop
Help us to improve Ultimate-Guitar.com Take our survey!
×
Author
Difficulty
novice
*********
**INTRO**
*********

 Clean Electric:
   F               C           F             C
e|--------13-10b12-------------------13-12------|
B|-------------------13----------------------13-|
G|-12/14----------------------12-12/14----------|
D|----------------------------------------------|
A|----------------------------------------------|
E|----------------------------------------------|
         Dm          Em        G
e|-----------------------------------------15-------|
B|-13-13b15---------17-17----17b18-15---15b17-17r15-|
G|--------------------------------------------------|
D|--------------------------------------------------|
A|--------------------------------------------------|
E|--------------------------------------------------|

Acoustic:
  Am
e|-------------------------|
B|-------------------------|
G|-------------------------|
D|---0h2---0h2---0h2-------|
A|-0-----0-----0-----0-2-3-|
E|-------------------------|

 Distorted Electric:
e|----|
B|----|
G|----|
D|-7--|
A|-7--|
E|-5--|
 let ring

*********
**VERSE**
*********


 Main  Verse Guitar Riff
 Acoustic:
  C           Am
e|-----------------------------|
B|-----------------------------|
G|-----------------------------|
D|----0h2-----0h2---0h2--------|
A|-3-------0------0------0-2-3-|
E|-----------------------------|

        C                    Am (Lick 1)
We were moving away from the border
C                        Am
Looking for somewhere to sleep
    C                     Am
The two of us sharing the driving
    C                           Am (Lick 2)
Two hitchhitkers slumped in the back seat

Lick 1
e|------------|
B|------------|
G|-7b9r-r-r-r-|
D|------------|
A|------------|
E|------------|

Lick 2
Distorted Electric
e|-------------------------|
B|-10--13--12-12-10--8-10--|
G|-------------------------|
D|--7--10---9--9--7--5--7--|
A|-------------------------|
E|-------------------------|

Repeat for all verses
then


********
**CODA**
********

F                             C
And the sun shone down on her lovely young limbs
  F                             C
I thought to my self she's much too good for him
  F                        C           F
I lay down beside her with tears in my eyes

She said...
Suggest correction
Give kudos to tab author, rate the tab!
1 2 3 4 5
comments
print report bad tab
guest
You may want to rate the tab now too:
select rating
Wanna post a correction for this tab? Suggest correction