Oops, an error
Loading. Please wait.

511Am The Moment Of Clarity Tab

1,031 views 3 this week
no commentswrite comment
1 2 3 4 5
x 4
add to favorites
launch autoscroll
font size
0
reset
how to read this tab
guitar tuner
Autoscroll
slow
fast
+/-
esc
set tempo
stop
Help us to improve Ultimate-Guitar.com Take our survey!
×
Difficulty
intermediate
This is my first tab, so i hope you like it
dedicated to you Marii, love you!!!

* h = hammer
       F           C           Am            G
  E  --1--       --0--        --0--        --3----|
  B  --1--       --1--        --1--        --3----|
  G  --2--       --0--        --2--        --0----|
  D  --3--       --2--        --2--        --0----|
  A  --3--       --3--        --0--        --2----|
  E  --1--       --3--        -----        --3----|

E---------------------------------------------------------------------|
B---------------------------------------------------------------------|
G---------------------------------------------------------------------|
D------0h2------0h2------0h2------0h2-----------------------0h2-------|
A--3---------3--------3--------3--------3--------------------------3--|
E---------------------------------------------------------------------|
                                       And the moment of clarity faded like


-------------------------------------------------------------------------------------------------|
-------------------------------------------------------------------------------------------------|
-------------------------------------------------------------------------------------------------|
----------------------0h2----------------------0h2---------------0h2-------------------------0h2-|
-2------------0-----------------0------------------------0-------------------0-------------------|
-------------------------------------------------------------------------------------------------|
charity does                      sometimes                                  I open one eye


      F
And I put out my hand just to
C
touch your soft hair
        F
To make sure in the darkness
     C           [ D ------0h2----------  ]
that you were still there
      F
And I have to admit
  C          Am       G        [D-------0h2-0-----|
I was just a little afraid     [A--0h2------------|


F      Uuuuhhhhhh


E----------------------------------------------------0-----|
B----------------------------------------------------1-----|
G----------------------------------------------------2-----|
D---------0h2------------------------0h2-----0h2-----2-----|
A-----3---------3---2---0-----------------0----------0-----|
E----------------------------------------------------------|
      Yeah              But then...

  F
I had a little bit of luck You were awake I couldn't take another moment
  C
alone

Any question or comments: dimarcosalas@hotmail.com
Suggest correction
comments
print report bad tab
guest
You may want to rate the tab now too:
select rating
Wanna post a correction for this tab? Suggest correction