Oops, an error
Loading. Please wait.

Breathe Bass Tab

724 views 1 this week
no commentswrite comment
1 2 3 4 5
excellent!
x 3
add to favorites
launch autoscroll
font size
0
reset
guitar tuner
Autoscroll
slow
fast
+/-
esc
set tempo
stop
Help us to improve Ultimate-Guitar.com Take our survey!
×
Author
Difficulty
intermediate
Roger Waters
Breathe
From - Music From The Body

                                                           h
[--------|------------|--7--6-------|---7--4-----------9--7-9----s--]
[--7-----|----4--7----|-------7--5--|---------5----------------7-\--]
[-----5--|--5------5--|-------------|------------7---7--------------]
[--------|------------|-------------|-------------------------------]

                                         h
[-------------|----7----|---------------7-9-----s--|------------h-----]
[----------7--|------5--|----------6--9------7--\--|-----------5-7----]
[----4---7----|--5------|--7---7-------------------|------4--7-----5--]
[--5----------|---------|--------------------------|--5---------------]

                   s          s
[--7--7--6------|--\12--11--9-\-|-------------------s--]
[----------7-5--|---------------|-------s--7----7--7\--]
[---------------|---------------|--7---7\-----7--------]
[---------------|---------------|----------------------]

                          s                                 s    s
[-----7-6----7-6-------|--\12--11--12--11--9--7--|---------5\7--5\7---s--]
[---------7------7--5--|-------------------------|----4--7----------5-\--]
[--5-------------------|-------------------------|--5--------------------]
[----------------------|-------------------------|-----------------------]


[-------------s------|--7--7-6------|--------h-----]
[-----------5-\-7----|---------7--5-|----7--5-7----]
[----2--5--------5---|--------------|--7--------5--]
[--3-----------------|--------------|--------------]

              s        s
[------------5\7----|--\12--11--9-----]
[------4--7------5--|-----------------]
[----5--------------|--------------5--]
[--5----------------|-----------------]


[--7--6--------7--4--------6--9--6-------|--14--11--14------]
[-------7--5--------5--7-----------7-----|--------------12--]
[-------------------------------------5--|------------------]
[----------------------------------------|------------------]

              s                          s
[----------|--\12--11--9-----|----------7\9----|
[-------5--|-----------------|-----6--9-----7--|
[----5-----|--------------7--|--7--------------|
[--5-------|-----------------|-----------------|

     p          s               h
[--14-12--14--12\11-------h---12-14-----|--12-11---------]
[-----------------------11-14-------12--|--------12------]
[--------------------12-----------------|------------10--]
[---------------------------------------|----------------]

                                      s
[--------12-11---12-11--------|----14-\----h----h----h-----]
[-----12---------------12-----|-----------5-7--5-7--5-7----]
[--14---------------------10--|-------------------------5--]
[-----------------------------|----------------------------]


[--7-6-------|----------------s------|--16--13----------------]
[------7--5--|----------5--7--\--14--|----------14---------s--]
[------------|-----4--7--------------|-------------12---12-\--]
[------------|---5-------------------|------------------------]

                                                                     s
[-----------7----|-------h---|---------7-6------|---------|-----7--7-\-12--]
[-------------5--|--5-6-6-7--|-------------7-5--|--5-6-7--|----------------]
[--5-----5-------|-----------|--5----5----------|---------|--5-------------]
[------5---------|-----------|-----5------------|---------|----------------]

            h      h
[-----12--11-12--11-12-----|--14--11--14------]
[--12------------------12--|--------------12--]
[--------------------------|------------------]
[--------------------------|------------------]


Suggest correction
Give kudos to tab author, rate the tab!
1 2 3 4 5
comments
print report bad tab
guest
You may want to rate the tab now too:
select rating
Wanna post a correction for this tab? Suggest correction