Oops, an error
Loading. Please wait.

California tab

version 2
version 2

Whole song

10,266 views 6 this week
1 commentread comment
1 2 3 4 5
x 3
add to favorites
×
Save as Personal and add changes to this tab that will be seen only by you. Learn more ›
×
You can save this tab as Personal to edit and correct it or add notes. All changes will be seen only by you. Learn more »
launch autoscroll
font size
0
reset
how to read this tab
guitar tuner
edit
Autoscroll
slow
fast
+/-
esc
set tempo
stop
--------------------------------------------------------------------
                       California - Rogue Wave
--------------------------------------------------------------------

Tuning: Standard
Played with a capo on the 1st fret.

This is my best guess. Hopefully someone can improve on this. I play
the F# on the low E with my thumb.  Enjoy.

Part A
  /       /       /       /       |/       /       /       /       |
e|--------------------------------|--------------------------------|
B|----O-O---O-O-------------------|O---O-O-O-O-O-O-O-O-O---O-------|
G|----1-1---1-1--/2--2--\1--------|1---1-1-1-1-1-1-1-1-1---1-------|
D|----2-2---2-2--/4----------2----|2---2-2-2-2-2-2-2-2-2---2-------|
A|----2-2---2-2-------------------|2---2-2-2-2-2-2-2-2-2---2-------|
E|O-------------------------------|O-2-2-2-2-2-O-2-2-O-2---O-------|

Part B
  /       /       /       /       |/       /       /       /       |
e|------O-----------O---------O---|------O-----------O---------O---|
B|4-----------4-----------4-------|4----------4------------4-------|
G|1-----------1-----------1-------|1----------1------------1-------|
D|2-----------2-----------2-------|4----------4------------4-------|
A|--------------------------------|--------------------------------|
E|O-------------------------------|--------------------------------|

  /       /       /       /       |/       /       /       /       |
e|--------------------------------|--------------------------------|
B|O---O-O-O-O-O-O-O---O---O-------|O---O-O-O-O-O-----------O-------|
G|1---1-1-1-1-1-1-1---1---1-------|1---1-1-1-1-1-----------1-------|
D|2---2-2-2-2-2-2-2---2---2-------|2---2-2-2-2-2-----------2-------|
A|2---2-2-2-2-2-2-2---2---2-------|2---2-2-2-2-2-----------2-------|
E|O-2-2-2-2-2-O-2-2---2---O-------|O-2-2-2-2-2-O-----------O-------|

Part C
  /       /       /       /       |/       /       /       /       |
e|--------------------------------|--------------------------------|
B|O-----O-----O-------------------|O-----O-----O-------------------|
G|1-----1-----1-------------------|1-----1-----1-------------------|
D|3-----3-----3-------------------|3-----3-----3-------------------|
A|3-----3-----3-------------------|3-----3-----3-------------------|
E|--------------------------------|--------------------------------|

Part D
  /       /       /       /       |/       /       /       /       |
e|O-----O-----O-------------------|--------------------------------|
B|O-----O-----O-------------------|O-----O-----O-------------------|
G|1-----1-----1-------------------|1-----1-----1-------------------|
D|2-----2-----2-------------------|3-----3-----3-------------------|
A|2-----2-----2-------------------|3-----3-----3-------------------|
E|O-----O-----O-------------------|--------------------------------|

Outro
  /       /       /       /       |/       /       /       /       |
e|O---O-O--O----O-O---O---2---O---|O---O-O--O----O-O---O---2---O---|
B|4---4-4--4----4-4---4---O---O---|4---4-4--4----4-4---4---O---O---|
G|1---1-1--1----1-1---1---1---1---|1---1-1--1----1-1---1---1---1---|
D|2---2-2--2----2-2---2---2---2---|2---2-2--2----2-2---2---2---2---|
A|--------------------------------|--------------------------------|
E|--------------------------------|--------------------------------|

  /       /       /       /       |/       /       /       /       |
e|O---O-O--O----O-O---O---2---O---|O---O-O--O----O-O---O---2---O---|
B|4---4-4--4----4-4---4---O---O---|4---4-4--4----4-4---4---O---O---|
G|1---1-1--1----1-1---1---1---1---|1---1-1--1----1-1---1---1---1---|
D|2---2-2--2----2-2---2---2---2---|2---2-2--2----2-2---2---2---2---|
A|--------------------------------|--------------------------------|
E|--------------------------------|--------------------------------|

  /       /       /       /       |
e|--------------------------------|
B|O---O-O--O----O-O---O---O---O---|
G|1---1-1--1----1-1---1---1---1---|
D|3---3-3--3----3-3---3---3---3---|
A|3---3-3--3----3-3---3---3---3---|
E|--------------------------------|





[A]
Screw California
And friends that are never there
And places that they oughta
Pretend that they even care

[B]
From a false family, she could light you up
Like a holiday tree in the summer

[C]
So lead us there

[A]
So screw California
And ice that will never melt
From hearts of the modern
Children of Cicero

[B]
From a false family, she could light you up
Like a holiday tree in the summer

[D]
So lead us there


===============================================================================
| /  slide up
| \  slide down
| h  hammer-on
| p  pull-off
| ~  vibrato
| +  harmonic
| x  Mute note
===============================================================================

            
            
Suggest correction
Creating personal tab
Creating personal tab
You can edit any tab online and save it as your Personal.

You can edit, replace or remove any tab part or add personal notes – all changes will be seen only by you.

Personal tabs can be accessed anytime from any device, even offline.
Learn more »
Give kudos to tab author, rate the tab!
1 2 3 4 5
comments
print report bad tab
1 comment total.
0 reply
TheLastStory 33 Apr 30, 2015 03:41 PM

For Part C, just do an E cord but play it like this:
e|-O-
B|-O-
G|-1-
D|-2-
A|-X-
E|-2-

That sounds closer to the original song.

Other than that, solid tab.

guest
Wanna post a correction for this tab? Suggest correction