Oops, an error
Loading. Please wait.

Eyes tab

65,739 views 27 this week
9 commentsread comments
1 2 3 4 5
x 37
add to favorites
×
Save as Personal and add changes to this tab that will be seen only by you. Learn more ›
×
You can save this tab as Personal to edit and correct it or add notes. All changes will be seen only by you. Learn more »
launch autoscroll
font size
0
reset
how to read this tab
guitar tuner
edit
Autoscroll
slow
fast
+/-
esc
set tempo
stop
Tuning: Standard Capo 6

[Intro]
G
(relative to capo)
e|-------------------------------|--------------------------------|
B|-------3---3-----3-------------|------3---3------3--------------|
G|---2/4---4---------4\2—0h2--0--|--2/4---4----------4--4\2-0-----|
D|-------------------------------|--------------------------------|
A|-------------------------------|--------------------------------|
E|-------------------------------|--------------------------------|

C                      G
Missed the last train home.
C                 Em                    C
Birds pass by to tell me that I'm not alone.
            G                C
Well I'm pushing myself to finish this part,
         G               C                   G                C
I can handle a lot, but one thing I'm missing, is in your eyes.
           G            C             G            Em             C
In your eyes, in your eyes, in your eyes, in your eyes, in your eyes,
           G
in your eyes.

(small solo relative to capo)
e|-------------------------------------------------|
B|------------------------3-3----------------------|
G|---4p2-0---0--------2/4--------------------------|
D|---------2---------------------------------------|
A|-------------------------------------------------|
E|-------------------------------------------------|

C                    G
Have you seen this film?
C                  Em                     C
It reminds me of walking through the avenues.
G                     C
Washing my hands of attachments yeah,
        G                      C                   G                C
I can land on the ground, but one thing I'm missing, is in your eyes.
           G             C             G             Em            C
In your eyes, in your eyes, in your eyes, in your eyes, in your eyes,
            G             G
in your eyes.

(solo relative to capo)
e|-------------------------------------------------|
B|------3-3-3---3--5---3---3-----------------------|
G|----4-------4------4---4-------------------------|  (x4)
D|-------------------------------------------------|
A|-------------------------------------------------|
E|-------------------------------------------------|

           G             C             G             C             G
In your eyes, in your eyes, in your eyes, in your eyes, in your eyes,
           C            Em             C             G
in your eyes, in your eyes, in your eyes, in your eyes.

(exit solo relative to capo)
e|-------------------------------------------------|
B|-------0-0---------0-3-----3p0-------------------|
G|---2/4---------2/4-------------2p0-0-----2h4-----|
D|-------------------------------------------------|
A|-------------------------------------------------|
E|-------------------------------------------------|


************************************

| h  Hammer-on
| /  Slide up
| \  Slide down
| p  Pull-off

************************************

            
            
Suggest correction
Creating personal tab
Creating personal tab
You can edit any tab online and save it as your Personal.

You can edit, replace or remove any tab part or add personal notes – all changes will be seen only by you.

Personal tabs can be accessed anytime from any device, even offline.
Learn more »
comments
print report bad tab
9 comments total. Showing first comments.
0 reply
Krzy_Guitar_Kid 10 Oct 30, 2007 04:11 PM

Almost perfect, except the solo where it goes "in your eyes." I don't think there are supposed to be Cs there.

0 reply
accioblitz 51 Nov 23, 2007 12:22 AM

You're probably right. But for the sake of playing solo, unless the bass is present, it's easier to hear the variations
when you play it with the C's. Try playing with only G's and you'll hear what I mean.

0 reply
lazzah101 74 Dec 15, 2007 07:02 AM

I agree with the other comment but this is very good tab 5 stars =]

guest
You may want to rate the tab now too:
select rating
Wanna post a correction for this tab? Suggest correction