Oops, an error
Loading. Please wait.

Como Te Deseo chords

version 1
version 1

Whole song

by Rojo
34 views 1 this week
no commentswrite comment
1 2 3 4 5
3 more votes to show rating
add to favorites
×
Save as Personal and add changes to this tab that will be seen only by you. Learn more ›
×
You can save this tab as Personal to edit and correct it or add notes. All changes will be seen only by you. Learn more »
launch autoscroll
font size
0
reset
transpose
0
reset
simplify chords
display chords
guitar tuner
edit
Autoscroll
slow
fast
+/-
esc
set tempo
stop
Strumming
There is no strumming pattern for this song yet. and get +5 IQ
Ta´ fácil el intro es un arpegio en F,

C                                 F
Quiero estar en la intimidad contigo
Dm
enfocar mi vida una
                    Gsus4- G - Gsus4 - G
vez mas a tu majestad
C                               F
dejando atrás el miedo y el dolor
Dm
confiando en tu mirada
                           Gsus4- G - Gsus4 - G
dejando arder mi llama por Ti

           Dm     C    Bb
Como te des--e----e----o
             Dm C Bb
como te deseo
           Dm     C    Bb
Como te des--e----e----o
             Dm C Bb
como te deseo

C                           F
Mi deseo es agradar Tu corazón
Dm
y todo mi afecto mi
             Gsus4- G - Gsus4 - G
vida y mi razón
C                                             F
se eleva al cielo El  que habita en mi interior
Dm
eres el aire que respiro
     F                       C
Me alienta y me levanta de mi error


           Dm     C    Bb
Como te des--e----e----o
            Dm C Bb
como te deseo
           Dm     C    Bb
Como te des--e----e----o
             Dm C Bb
como te deseo

solo:


E-----------------------------------------------------------
A-----------------------------------------------------------
D-----------------------------------------------------------
G-----------10--10--------------9--9-----9--10--9-----7--7--
B---8s10--------------8s10--8-------------------------------
e-----------------------------------------------------------

E-------------------------------------------------------------
A-------------------------------------------------------------
D-------------------------------------------------------------
G---7---------------------10--10--------------9--9-----9--10-9
B-------6---8----8s10--------------8s10--8--------------------
e-------------------------------------------------------------


E--------------------------------------------------
A--------------------------------------------------
D--------------------------------------------------
G-----7--7-----------------------------------------
B--------------------------------------------------
e--------------------------------------------------
PS ESO GÜE TODO ECHENLE GANAS.
Suggest correction
Creating personal tab
Creating personal tab
You can edit any tab online and save it as your Personal.

You can edit, replace or remove any tab part or add personal notes – all changes will be seen only by you.

Personal tabs can be accessed anytime from any device, even offline.
Learn more »
Give kudos to tab author, rate the tab!
1 2 3 4 5
comments
print report bad tab
guest
Wanna post a correction for this tab? Suggest correction