Oops, an error
Loading. Please wait.

Contigo Hare Historia tab

version 1
version 1

Whole song

by Rojo
65 views 1 this week
no commentswrite comment
1 2 3 4 5
3 more votes to show rating
add to favorites
×
Save as Personal and add changes to this tab that will be seen only by you. Learn more ›
×
You can save this tab as Personal to edit and correct it or add notes. All changes will be seen only by you. Learn more »
launch autoscroll
font size
0
reset
how to read this tab
guitar tuner
edit
Autoscroll
slow
fast
+/-
esc
set tempo
stop
intro: REm - FA - DO - LAm
1:------5-5-5-5-----------------------------|
2:-6-6-8-------8-6-6-5--5-5-6-8-8-8-8-5-5---|
3:---------------------------------------7--|

       REm                  DO
Me emociona poder verte y conocerte
       REm                  DO
Me enloquece escucharte y abrazarte
  LA#                       DO
      lo que has hecho de mi 
                    SOL
      al fin lo comprendí
  LA#                     DO
      Sé que estando contigo 
                    LAm
      nada lo puede impedir

coro:
    REm     FA              DO
creeré, viviré contigo haré historia LAm
iaiaiaiai!!!!

se tu imagen
tu deseo
en tí yo creo
tu palabra
me ah hecho libre
contigo puedo

ya nada es imposible 
eres el creador
tu desarmas mis sueños
derramaste tu amor

coro:
creeré, viviré
contigo haré historia 

arpegueo:
4:-------------------5p7-7h6h5-------5p7-7h6h5-------5p7-7h6h5----|
5:5-6-7-8-7-6-5-4-5-7---------7-6-5-7---------7-6-5-7---------7-6-|
no hay razón para no creer
mi corazón late por tu ser
no puedo resistir a amarte tanto
yo + yo es igual a nada
pero yo no estube sin ?? nada
con tu sangre redimiste mi alma
me llevaste a tí crees en mi
aire puro puedo sentir
te veo reir y me haces vivir
lo que parecia al fin
dices que apenas comenzamos

en mi corazón ya comenzó
el avivamiento de tu amor
SI 
no existe otra cosa mejor

interludio:
yo quiero estar contigo y escribir la historia

punteo:
1:------------------------15-----------------------15~-|
2:----------------------11--15-------------------------|
3:-----------------------------14-12p14-15-12-14-15----|
4:------------12---------------------------------------|
5:-12-10p12-13--13h12-10-------------------------------|
6:-----------------------------------------------------|

1:---------------------------------------------------12----15-|
2:-18-15p17-15p16-10p11-10-----------------12------12----12---|
3:---------------------------------------14--13b-14----14-----|
4:------------------------------------------------------------|
5:-------------------------12\-7/15\12------------------------|
6:------------------------------------------------------------|

1:-17-15-13-------------------------------12-15-15-15-15-15-15-15-15-15-|
2:---------17-15-13---------------13p15p16------------------------------|
3:---------------------------12p14--------------------------------------|
4:-------------------12p13p14-------------------------------------------|
5:----------------------------------------------------------------------|
6:----------------------------------------------------------------------|

coro:
creeré, viviré
contigo haré historia 

papapapapapapa.....


'si crees haras mayores cosas que Él'

            
            
Suggest correction
Creating personal tab
Creating personal tab
You can edit any tab online and save it as your Personal.

You can edit, replace or remove any tab part or add personal notes – all changes will be seen only by you.

Personal tabs can be accessed anytime from any device, even offline.
Learn more »
Give kudos to tab author, rate the tab!
1 2 3 4 5
comments
print report bad tab
guest
Wanna post a correction for this tab? Suggest correction