Oops, an error
Loading. Please wait.

Contigo Hare Historia tab

version 2
version 2

Whole song

by Rojo
151 views 1 this week
no commentswrite comment
1 2 3 4 5
3 more votes to show rating
add to favorites
×
Save as Personal and add changes to this tab that will be seen only by you. Learn more ›
×
You can save this tab as Personal to edit and correct it or add notes. All changes will be seen only by you. Learn more »
launch autoscroll
font size
0
reset
how to read this tab
guitar tuner
edit
Autoscroll
slow
fast
+/-
esc
set tempo
stop
tablatura: por Javier agrezzott, cover colaboración
en youtube

H= hamer
P= pull off

Intro
  D     C     LA
E----------------------------------
B----------------------------------
G-7-----5--------------------------
D-7-----5-----7--------------------
A-5-----3-----7--------------------
E-------------5--------------------


Solo del Intro
E--------------------------------------
B-10h11-10-8/13-15-10-----------------
G--------------------------------------
D--------------------------------------
A--------------------------------------
E--------------------------------------

 Estrofa                (2 veces)
E----------15---------------------------
B---------------------------------------
G-14-15-14----14-15-14------------------
D---------------------------------------
A---------------------------------------
E---------------------------------------

  B      C      G          B    C    LA
E---------------3-----------------------
B-1------3------3--2-------1----3-------
G-3------5------4----5-4---3----5-----2-
D-3------5------5--------5-3----5-----2-
A-1------3------5----------1----3-----0-
E---------------------------------------

 Coro
  D    F     LA
E---------------------------------
B---------------------------------
G-7----------------12-10-9-12-----
D-7----3-----7--------------------
A-5----3-----7--------------------
E------1-----5--------------------

 Puente                    (Tres veces esta parte)
E--------------|------------------------
B--------------|------------------------
G--------------|------------------------
D--------------|------------------------
A-5-6-7-8-7-6--|----3h5--3/2---3--------
E--------------|-5-5----------5---5-0h1--

Minuto: 1: 34        (2 veces repetir esto)
E----------|----------------------------
B----------|----------------------------
G----------|----------------------------
D-----5h7--|----------------------------
A----------|---3h5--3/2---3-------------
E-5-5------|-5-5----------5---5-0h1------


Puente                      (Tres veces esta parte)
E--------------|------------------------
B--------------|------------------------
G--------------|------------------------
D--------------|------------------------
A-5-6-7-8-7-6--|----3h5--3/2---3--------
E--------------|-5-5----------5---5-0h1-


E-------------|---------------------------------
B-------------|-------------------6---9---12----
G-------------|-----------4---7----7---10---13--
D-------------|----3---6----6---9---------------
A-5-6-7-8-7-6-|-5----5---8----------------------
E-------------|---7-----------------------------


T= tapin  T                        D
E--------------------------------------
B--------------------------------------
G----------------------------------7-7-
D--/9-8-7-6-8-7---3-9--4-10--5-11--7-7-
A---------------2-----3-----4------5-5-
E--------------------------------------

                       D   (entra aquí LA otra guitarra)
E-------------------------------------------
B-------------------------------------------
G----------------------7-7------------------
D---7-13--8-14---9-15--7-7------------------
A--6-----7-----8-------5-5-8-5-5-7-5-7-6-5--
E-------------------------------------------


E--------------------------------------
B--------------------------------------
G--------------------------------------
D-10--9--8--7--------------------------
A-8---7--6--5--------------------------
E--------------------------------------

 Nota: la otra guitarra tiene afinada la cuerda 6 en D

E---------------------------------
B---------------------------------
G---------------------------------
D-3-0-0-2-0-2-1--3-2-1-0----------
A-3-0-0-2-0-2-1--3-2-1-0----------
D-3-0-0-2-0-2-1--3-2-1-0----------

Nota extra: que viene después del tapin deben ustedes
buscas la rítmica yo solo puse las notas q se tocan
pero deben buscar el ritmo.


     Solo
E----------------------------15-13-15-
B-------------------------/15---------
G---------------7---------------------
D--/7-7 --5-7-8---7h8p7-5-------------
A-------------------------------------
E-------------------------------------


E-------------------13-15-15-15-15----
B----------------15------------------
G--14--12-14-15--------------------
D----------------------------------
A----------------------------------
E----------------------------------

Minuto. 2:38

E--13-12h13p12-10-12-10h12p10--------
B-----------------------------11-10-
G-----------------------------------
D-----------------------------------
A-----------------------------------
E-----------------------------------


Minuto: 2:42

E-----------------------------------15-----17-
B---------------------------------------------
G------------------14-15-12/14-14-15--14-15---
D------/10-8-7-8------------------------------
A---------------------------------------------
E------------------------------------------


E-17-15-13-12h13p12----12--
B-------------------15-----
G--------------------------
D--------------------------
A--------------------------
E--------------------------

Parte rápida, a estirar los dedos bastante
E-12-12-10-10-8-8-------------------------------
B-----------------12-12-10-10-9-9---------------
G---------------------------------11-11-9-9-7-7-
D-----------------------------------------------
A-----------------------------------------------
E-----------------------------------------------

E---------------------------8-8-11-11-12-12-15-15-15
B-----------9-9-10-10-12-12-------------------------
G-9-9-11-11-----------------------------------------
D---------------------------------------------------
A---------------------------------------------------
E---------------------------------------------------

E-15-15-15---15-15-15--------------
B----------------------------------
G----------------------------------
D----------------------------------
A----------------------------------
E----------------------------------

Nota: el solo no es tan complicado solo la última
parte que es muy rápido.
Pero si no pueden con esa parte simplemente
apréndase lo q le sea mas Fácil.


Punteo del Final (repetir 3veces)
E----------------------------------
B-----18-17----18-17---------------
G--14-------14-------14------------
D----------------------------------
A----------------------------------
E----------------------------------


E----------------------------------
B----18-17----18-18/20-------------
G--14------14----------------------
D----------------------------------
A----------------------------------
E----------------------------------

            
            
Suggest correction
Creating personal tab
Creating personal tab
You can edit any tab online and save it as your Personal.

You can edit, replace or remove any tab part or add personal notes – all changes will be seen only by you.

Personal tabs can be accessed anytime from any device, even offline.
Learn more »
Give kudos to tab author, rate the tab!
1 2 3 4 5
comments
print report bad tab
guest
Wanna post a correction for this tab? Suggest correction