Oops, an error
Loading. Please wait.

Donde? Como? tab

version 2
version 2

Whole song

by Rojo
43 views 1 this week
no commentswrite comment
1 2 3 4 5
3 more votes to show rating
add to favorites
×
Save as Personal and add changes to this tab that will be seen only by you. Learn more ›
×
You can save this tab as Personal to edit and correct it or add notes. All changes will be seen only by you. Learn more »
launch autoscroll
font size
0
reset
how to read this tab
guitar tuner
edit
Autoscroll
slow
fast
+/-
esc
set tempo
stop
DESDE VILLA LA ANGOSTURA, NQN, ARGENTINA. (
Aquí les va un tema de RoJO q esta muy bueno? espero q les guste..

Intro:
  F#m
e|-----------------------------------------------------------
B|-----------------------------------------------------------
G|-----------------------------------------------------------
D|-----11----------11----------11----------11----------7-----
A|--9-9--9-9--7-9-9--9-9--7-9-9--9-9--7-9-9--9-9--7-5-5-5-5--
E|-----------------------------------------------------------


-(Estos  siguientes punteos toques van de fondo mientras se canta y toca)-
--Cualquier cosa escuchar el tema en cd para encajar bien los tiempo--

 D                            A
       D|------7------
       A|---5-5-5-5--------
       E|----------------
¿Dónde escribo mi vida sin Ti?

              E               D
D|------11-------------9-------------
A|-12-12--12-12-----7-7-7-7--------------
E|------------------------------------
          ¿Cómo hago historia así?

                                        A
D|-----7---------7--------------------
A|--5-5-5-5---5-5-5-5-------------------------
E|------------------------------------
        ¿Dónde encuentro respuesta al clamor

                     E              D
D|------11-------------9-------------
A|-12-12--12-12-----7-7-7-7--------------
E|------------------------------------
          ¿De encontrar otro día mejor?.


                                     A
 D|------7---------7-------
 A|---5-5-5-5---5-5-5-5-----
 E|----------------------
         ¿Dónde encuentro en reto sin Ti?

                 E              D
D|------11-------------9-------------
A|-12-12--12-12-----7-7-7-7--------------
E|------------------------------------
          ¿Cómo abrazo la vida así?

                                   A
D|-----7---------7--------------------
A|--5-5-5-5---5-5-5-5-------------------------
E|------------------------------------
      ¿Dónde encierro mi amor para Ti?


              E               D
D|------11-------------9-------------
A|-12-12--12-12-----7-7-7-7--------------
E|------------------------------------
           Cómo alzo el vuelo así?.

CORO:
 A             E               F#m
Jesús, no me puede faltar tu amor
       E                     F#m
Es lo único que quiero en la vida
       D                A
No me dejes morir sin saber
               E
Lo que es tu amor.

?((Estas dos estrofas siguientes se repite las
mismas notas y arpegios de la 1ra Estrofa))?

¿Dónde esta mi camino sin Ti?
¿Cómo alcanzo mis sueños así?
¿Dónde sacio mi sed de saber
El destino que tiene mi ser?


¿Cómo toco el mundo sin Ti?
¿Dónde pongo la luz que hay en mí?
¿Dónde escribo mi amor para Ti?
Porque se que este no tiene fin.

(Ahora va el CORO)

Después este pequeño punteo lento  antes del puente
e|-----------------------------------------------------------
B|-----------------------------------------------------------
G|--7-6-4-6-----7-6-4-6-----7-6-4-6-----7-6-4-6---4----------
D|---------7-4---------7-4---------7-4---------7-4-----------
A|-----------------------------------------------------------
E|-----------------------------------------------------------


Puente:
  D
//Tú eres la melodía
        A          E
La que nace día a día
D
El manantial de mi vida
     A              E
La fuente de mi alegría.//


CORO:
B             F#               G#m
Jesús, no me puede faltar tu amor
       F#                     G#m
Es lo único que quiero en la vida
       E                B
No me dejes morir sin saber
               F#
Lo que es tu amor.


BUENO OJALA LES AYA GUSTADO, SE QUE
DEBEN HABER ERRORES POR AHÍ PERO ME GUSTARIA QUE
EL QUE LOS ENCUENTRE ME LO DIGA PORFAVOR, ASI APRENDO MAS JEJE.
GRACIAS POR TODO. MUCHAS BENDICIONES A TODOS LOS FANS DE CRISTO
Y DE RoJo. (SALUDOS A LA IGLESIA MISION IGLESIA DEL SEÑOR
DE VILLA LA ANGOSTURA, NEUQUEN, ARG.
Les dejo mi msn:
Jaime. A. Soto:
jimmy_kpox100pre@
jaimevla@
Suggest correction
Creating personal tab
Creating personal tab
You can edit any tab online and save it as your Personal.

You can edit, replace or remove any tab part or add personal notes – all changes will be seen only by you.

Personal tabs can be accessed anytime from any device, even offline.
Learn more »
Give kudos to tab author, rate the tab!
1 2 3 4 5
comments
print report bad tab
guest
Wanna post a correction for this tab? Suggest correction