Oops, an error
Loading. Please wait.

Eres Todopoderoso bass

by Rojo
406 views 6 this week
no commentswrite comment
1 2 3 4 5
3 more votes to show rating
add to favorites
×
Save as Personal and add changes to this tab that will be seen only by you. Learn more ›
×
You can save this tab as Personal to edit and correct it or add notes. All changes will be seen only by you. Learn more »
launch autoscroll
font size
0
reset
guitar tuner
edit
Autoscroll
slow
fast
+/-
esc
set tempo
stop
Bendiciones a todos los visitantes de la 
este Tab es muy bueno y muy sencillo, perdón cualquier error,
 y psss escuchen muy bien la canción, (grabada en vivo) y
Dios les bendiga...

:INTRO:                                                         (x2)
E-7-7-7-9-9-9-10-10-10--8-8-8-8-8-8-8-8?7-7-7---7-7?-5-5-5---5-5-|-7s|
A---------------------------------------------9------------7-----|---|
D----------------------------------------------------------------|---|
G----------------------------------------------------------------|---|

Mi única verdad... (El numero del () son las veces q se toca esa nota)
E-------------------------------5(5)-|
A-------------9----------------------|
D-9(16)-7(16)---9(8)-12(8)-7(8)------|
G------------------------------------|

:CORO:              (x2)
E-7-7-7-5-7-7-7--3-3-3-1-3-3-3---------------|
A------------------------------5-5-5-7-5-5-5-|
D--------------------------------------------|
G--------------------------------------------|

:INTRO:(x2)
:ESTROFA:(Mi única verdad...)
:CORO:(x4)
:SOLO:(X2)(Igual al coro)

No hay nadie como El...
E-5s-13s-1s-|
A-----------|
D-----------|
G-----------|

:CORO:(Sube 1 Tono)                       (x4)
E-9-9-9-7-9-9-9--5-5-5-3-5-5-5---------------|
A------------------------------7-7-7-9-7-7-7-|
D--------------------------------------------|
G--------------------------------------------|

:INTRO:(Sube 1 Tono)(x4)
E-9-9-9-11-11-11-12-12-12--5-5-5-5-5-5-5-5--9-9-9---9-9--7-7-7---7-7-|
A-------------------------------------------------11-----------9-----|
D--------------------------------------------------------------------|
G--------------------------------------------------------------------|

(La siguiente parte es el final, donde el bajo entra después de cantar
 unos coros y Emmanuel dice: ?Levanta tus manos y canta al REY DE REYES??)

:CORO:(Con 1 Tono arriba)
Tu eres Todo...       ...Poderoso     ...Grande   ...Majestuoso (x4)
E?-7s---9--------------------5----------------------------7--------|
A-----------------------------------------7-------------9----------|
D------------------------------------------------------------------|
G------------------------------------------------------------------|
Nadie como Tuuu...
E-------------7s-9-||
A------------------||
D------------------||
G------------------||
:ORDEN:
Intro:
Estrofa:
Coro:
Intro:
Estrofa:
Coro:
Solo:
Coro:(1 Tono arriba)
Intro:(1 Tono arriba)
Coro:(Final 1 Tono arriba)

            
            
Suggest correction
Creating personal tab
Creating personal tab
You can edit any tab online and save it as your Personal.

You can edit, replace or remove any tab part or add personal notes – all changes will be seen only by you.

Personal tabs can be accessed anytime from any device, even offline.
Learn more »
Give kudos to tab author, rate the tab!
1 2 3 4 5
comments
print report bad tab
guest
Wanna post a correction for this tab? Suggest correction