Oops, an error
Loading. Please wait.

Eres Todopoderoso tab

version 2
version 2

Whole song

by Rojo
73 views 1 this week
no commentswrite comment
1 2 3 4 5
2 more votes to show rating
add to favorites
×
Save as Personal and add changes to this tab that will be seen only by you. Learn more ›
×
You can save this tab as Personal to edit and correct it or add notes. All changes will be seen only by you. Learn more »
launch autoscroll
font size
0
reset
how to read this tab
guitar tuner
edit
Autoscroll
slow
fast
+/-
esc
set tempo
stop
HOLA QUE TAL ESTA ES MI PRIMERA TRANSCRIPCION ESPERO Y LES GUSTE
Y TODO ESTO ES PARA LA HONRRA Y GLORIA A DIOS


INTRO

E)-----------------------10-9----10-9----10-9-10-9----10-9----
B)----------------------------10------10-----------10------10-
G)-1/5-5-5-5-7-7-7-9-9-3--------------------------------------
D)------------------------------------------------------------
A)------------------------------------------------------------
E)------------------------------------------------------------

E)-----------------------10-9----10-9----10-9-10-9----10-9----------
B)----------------------------10------10-----------10------10-10/12-
G)-1/5-5-5-5-7-7-7-9-9-3--------------------------------------------
D)------------------------------------------------------------------
A)------------------------------------------------------------------
E)------------------------------------------------------------------


VERSOS

ESTE ARPEGIO SOLAMENTE LO HACE LA GUITARRA ELECTRICA EN TODOS LOS
VERSOS


       Bm                G
E)-----------------)-----------------
B)---3---3-----3---)---3---3-----3---
G)-----4----4----4-)-----0---0-----0-
D)-----------------)-----------------
A)-2---------2-----)-----------------
E)-----------------)-3---------3-----

         D                 A
E)---3---3-----3---)-----------------
B)-----3---3-----3-)---2---2-----2---
G)-----------------)-----2---2-----2-
D)-0---------0-----)-----------------
A)-----------------)-0---------0-----
E)-----------------)-----------------

AQUI VOY A PONER EN DONDE VA CADA ARPEGIO REPRESENTADO CON NOTAS


Bm                    G
LA UNICA RAZON DE MI ADORACION
 D            A
ERES TU MI JESUS
   Bm               G
EL UNICO MOTIVO PARA VIVIR
 D            A
ERES TU MI SEÑOR

   Bm              G
MI UNICA VERDAD ESTA EN TI
 D                      A
ERES MI LUZ Y MI SALVACION
  Bm                G
MI UNICO AMOR ERES TU SEÑOR
 D                    A  A5
Y POR SIEMPRE TE ALABARE


CORO(ESTAS SON LAS NOTAS DE LA ACOUSTOCA)

        Bm       Gadd2
TU ERES TODO PODEROSO
         D           A
ERES GRANDE Y MAJESTUOSO
      Bm          Gadd2
ERES FUERTE INVENCIBLE
          D        A
Y NO HAY NADE COMO TU


(AHORA SON LAS NOTAS DE LA ELECTRICA)

         B5       G5
TU ERES TODO PODEROSO
         D5         A5
ERES GRANDE Y MAJESTUOSO
        B5         G5
ERES FUERTE INVENCIBLE
          D5       A5
Y NO HAY NADE COMO TU


SOLO

E)------------------)     E)-------------------------------
B)------------------)     B)-----9-9-9-9-9-9---------------
G)-1/11-11-11-9-9-7-) X2  G)-1/9-------------1/9-9-9-9-9-9-
D)------------------)     D)-------------------------------
A)------------------)     A)-------------------------------
E)------------------)     E)-------------------------------


E)-------10----10-12----12/14--14-10-
B)-------------------10--------------
G)-11-11----11-----------------------
D)-----------------------------------
A)-----------------------------------
E)-----------------------------------


E)-10/12-10---------------------------------
B)----------12-10---------------------------
G)----------------11-13-10------------------
D)-------------------------12-10-------10-7-
A)-------------------------------12-10------
E)------------------------------------------


NOTAS EN 5

 B5    G5    D5    A5
E---  E---  E---  E---
B---  B---  B---  B---
G---  G---  G-7-  G---
D-9-  D-5-  D-7-  D-7-
A-9-  A-5-  A-5-  A-7-
E-7-  E-3-  E---  E-5-


ORDEN:

INTRO X2
VERSOS
CORO X2
INTRO X2
VERSOS
CORO X2
SOLO
CORO X4


WUENO ESO FUE TODO ESPERO LES GUSTE Y HECHANLE GANAS
Y NUNCA SE OLVIDEN DE QUIEN LES DIO ESTE TALENTO   DIOS!!!

TAMBIEN QUIERO MANDAR UN SALUDO A LOS DE LA IGLESIA LA HERMOSA
Y TODOS LOS CHAVOS DEL GRUPO NEW LIFE
KE DIOS LES BENDIGA
Suggest correction
Creating personal tab
Creating personal tab
You can edit any tab online and save it as your Personal.

You can edit, replace or remove any tab part or add personal notes – all changes will be seen only by you.

Personal tabs can be accessed anytime from any device, even offline.
Learn more »
Give kudos to tab author, rate the tab!
1 2 3 4 5
comments
print report bad tab
guest
Wanna post a correction for this tab? Suggest correction