Oops, an error
Loading. Please wait.

Intimdad tab

by Rojo
16 views 1 this week
no commentswrite comment
1 2 3 4 5
3 more votes to show rating
add to favorites
×
Save as Personal and add changes to this tab that will be seen only by you. Learn more ›
×
You can save this tab as Personal to edit and correct it or add notes. All changes will be seen only by you. Learn more »
launch autoscroll
font size
0
reset
how to read this tab
guitar tuner
edit
Autoscroll
slow
fast
+/-
esc
set tempo
stop
BUENO LA CANCION EMPIEZA CON UNA MELODIA, Y DE FONDO LLEVA
EL SIGUIENTE ARREGLITO.

e -----------------------------------------------------
B ----6--8-8 sl 10-10-10-------------------------------
G --5--------------------------------------------------

ESO LO HACE DOS VECES, HAY QUE ESCUCHAR BIEN POR QUE APENAS SE DISTINGUE

ENSEGUIDA SIGUE EL ARPEGIO QUE VA ALGO ASI:


        C (dos veces)            FAdd2(dos veces)
e ------1-3-0----0---------------------3------3--
B ----2--------1--------------------6----6-------
G -------------------------------5---------5-----
D --4-------------------------3------------------
A -----------------------------------------------
E -----------------------------------------------

       Dm (una vez)              Dm/C  (Una Vez)
e ----------1----------------------1-----------------
B -------3-----3-----------------3---3---------------
G ----2-----------2------------2-------2-------------
D --0------------------------3-----------------------
A ---------------------------------------------------
E ---------------------------------------------------

      G (una vez)            LUEGO SE REPITE DESDE C
e -------------3------3------------------------------
B ------3-----------3--------------------------------
G ----0---0-------0-----0----------------------------
D ---------------------------------------------------
A ---------------------------------------------------
E -3-------------------------------------------------


EN LA PARTE DE COMO TE DESEO LLEVA ESTE ARREGLO. (dos veces)
e ---------------------------------------------------
B ---------------------------------------------------
G --5--7--5------7 sl 9-----5 h 7----5---------------
D ---------------------------------------------------
A ---------------------------------------------------
E ---------------------------------------------------

EN LA siguiente PARTE DE COMO TE DESEO despues de que
canta emmanuel (dos veces) despues de esto sigue el solo
e --5-1-3--0-----------------------------------------
B ------------6--------------------------------------
G ---------------------------------------------------

SOLO:

e ------------------------------------------------------------
B -----------------------------------------------------------
G ------------------------------------------------------------
D --5 sl 7----------5 sl 7 sl 5------------2 sl 3 sl 2---------
A -----------8-8--------------------7-7-------------------5-5--
E ------------------------------------------------------------

e -------------------------------------------------------------------------
B -------------------------------------------------------------------------
G -------------------------------------------------------------------------
D --2-3-----5--5 sl 7-----------5 sl 7 sl 5-----------2 sl 3 sl 2----------
A -----------------------8-8-------------------7-7-------------------5-5---
E -------------------------------------------------------------------------

DESPUES DEL SOLO CONTINUA DE NUEVO EL CORO
PARA EL FINAL ES UN ARPEGIO EN "F" y termina En Bb.

Sl: Slide, indica que se toca la nota de la izquierda y se
desliza a la siguiente.
BUENO, ESOS SON TODOS LOS ARREGLOS DE ESTA CANCION, que sea de Bendicion.
Alejandro Lalcoma

            
            
Suggest correction
Creating personal tab
Creating personal tab
You can edit any tab online and save it as your Personal.

You can edit, replace or remove any tab part or add personal notes – all changes will be seen only by you.

Personal tabs can be accessed anytime from any device, even offline.
Learn more »
Give kudos to tab author, rate the tab!
1 2 3 4 5
comments
print report bad tab
guest
Wanna post a correction for this tab? Suggest correction