Oops, an error
Loading. Please wait.

Las Cosas Viejas Pasaron chords

version 2
version 2

Whole song

by Rojo
28 views 1 this week
no commentswrite comment
1 2 3 4 5
3 more votes to show rating
add to favorites
×
Save as Personal and add changes to this tab that will be seen only by you. Learn more ›
×
You can save this tab as Personal to edit and correct it or add notes. All changes will be seen only by you. Learn more »
launch autoscroll
font size
0
reset
transpose
0
reset
display chords
guitar tuner
edit
Autoscroll
slow
fast
+/-
esc
set tempo
stop
Strumming
There is no strumming pattern for this song yet. and get +5 IQ
intro

--1-1-1-1-1-1-1-----5-5-5-5-5-5-5---\
--1-1-1-1-1-1-1-----5-5-5-5-5-5-5---\\
-----------------9-9----------------\\\
-----------------9-9----------------///(dos veces)
-----------------7-7----------------//
------------------------------------/


verso

---------------------------------------------\
---------------------------------------------\\
---------12--------8---------10-------12-12--\\\
-------14--14----10-10-----12--12---14-----14///se repite
---------------------------------------------// durante
--12-12-------8-8-----10-10------8-8---------/ el verso


pre-coro

---------------------------------------------------
---------------------------------------------------
--10-10--12-12-----10-10--12-12--x-10-10-10-10-10-10-10-x
--10-10--12-12-----10-10--12-12--x-10-10-10-10-10-10-10-x
--8--8---10-10-----8--8---10-10--x-8--8--8--8--8--8--8--x
---------------------------------------------------


---------------------------------------------------
---------------------------------------------------
--12-12-12-12-12-12-12-----------------------------
--12-12-12-12-12-12-12-----------------------------
--10-10-10-10-10-10-10-----------------------------
---------------------------------------------------

coro

---------------------------------------------------
---------------------------------------------------
---------------------------------------------------
x-6-6-6-x-8-8-8-x-10-10-10-x-10-10-10--10-10-8-6---
x-6-6-6-x-8-8-8-x-10-10-10-x-10-10-10--10-10-8-6---
x-4-4-4-x-6-6-6-x-8--8--8--x-8--8--8---8--8--6-4---

el coro se repite 4 veces

el solo es raro pero funciona

--xxxxxxxxxxxxxxxxxxxxxxxx--------------------
--xxxxxxxxxxxxxxxxxxxxxxxx----------------------
--xxxxxxxxxxxxxxxxxxxxxxxx----------------------
--xxxxxxxxxxxxxxxxxxxxxxxx-----------------------
--xxxxxxxxxxxxxxxxxxxxxxxx-----------------------
--xxxxxxxxxxxxxxxxxxxxxxxx-----------------------

ok algo asi ba la parte cuando para la musica


el orden como va es asi:

intro
verso
pre-coro
coro
intro
verso
pre-coro
coro
solo
coro

y al final se repite el intro pero de otra manera


-------------------------------------------------
-------------------------------------------------
--10--9--14---------------------------------10---
--xx--x--xx---------------------------------10---
--8---5--12---------------------------------8----


ok eso es todo termina en 10 bueno espero q lesguste
                          10
                          8

un saludo para todos los jovenes de mi iglesia y para todos
los peruanos viva el peru ca........@#$%#@%$$ jo!!!!!
luis!!!!!!!

            
            
Suggest correction
Creating personal tab
Creating personal tab
You can edit any tab online and save it as your Personal.

You can edit, replace or remove any tab part or add personal notes – all changes will be seen only by you.

Personal tabs can be accessed anytime from any device, even offline.
Learn more »
Give kudos to tab author, rate the tab!
1 2 3 4 5
comments
print report bad tab
guest
Wanna post a correction for this tab? Suggest correction