Oops, an error
Loading. Please wait.

Quiero Darte Mis Manos tab

by Rojo
31 views 1 this week
no commentswrite comment
1 2 3 4 5
3 more votes to show rating
add to favorites
×
Save as Personal and add changes to this tab that will be seen only by you. Learn more ›
×
You can save this tab as Personal to edit and correct it or add notes. All changes will be seen only by you. Learn more »
launch autoscroll
font size
0
reset
how to read this tab
guitar tuner
edit
Autoscroll
slow
fast
+/-
esc
set tempo
stop
Es mejor, y mas facil, si hacen barra en las primeras cuatro
cuerdas en el noveno traste. La intro se repite 2 veces.

INTRO:

                                    Hasta aqui mantienen la barra
E---------------------------------------------------------------
B----9--9--9h10--9-------------9--9-------------5--5h6---5------
G----9--9--9--------11--9--11-----9-------------6--6--------6---
D--------------------------------------------------------------7
A---------------------------------------------0-----------------
E---------------------------------------------------------------

E---------------------------------------------------------------
B----7--7/5---7-------------------------------------------------
G----8--8/6---8-------------------------------------------------
D----9--9/7---9-------------------------------------------------
A---------------------------------------------------------------
E---------------------------------------------------------------


E
Quiero darte mis manos
C#m
Quiero darte mis pies
A                F#m   E
Y siguiendo tus pasos tu amor extender

E                     C#m
Quiero que sea tu boca la que hable por mí
A             F#m   E
Y que sea tu Gloria lo que fluya en mí

A                E   A                  E
Quiero ser tu reflejo, tus palabras, tu voz
A      B           C#m    A
Y entregar por completo toda mi devoción

E                    C#m
Muchas veces he dicho que moriría por Ti
A                 F#m   E
Pero hoy quiero decirte que viviré para Ti

E                      C#m
A los que están heridos quiero llevar tu amor
A                   F#m   E
Y a los que están perdidos mostrar tu salvación

A                E   A                  E
Quiero ser tu reflejo, tus palabras, tu voz
A      B           C#m    A
Y entregar por completo toda mi devoción

E            A        C#m           A
Padre escúchanos, despiértanos del sueño
E           A        C#m           A
Danos el valor de actuar sin titubear
E            A        C#m           A
Padre escúchanos, pues todo entregaremos
E            A        C#m           A
Excusas y temores ya no nos detendrán

  A                E   A                  E
//Quiero ser tu reflejo, tus palabras, tu voz
A      B           C#m    A
Y entregar por completo toda mi devoción//

E
Quiero darte mis manos
C#m
Quiero darte mis pies
A              F#m   E
Y decir con acciones que Tú siempre eres fiel


Esta cancion es de gran bendicion, mediten la letra.
Iglesia Lluvias de Gracia Sede, Guatemala, Guatemala.

            
            
Suggest correction
Creating personal tab
Creating personal tab
You can edit any tab online and save it as your Personal.

You can edit, replace or remove any tab part or add personal notes – all changes will be seen only by you.

Personal tabs can be accessed anytime from any device, even offline.
Learn more »
Give kudos to tab author, rate the tab!
1 2 3 4 5
comments
print report bad tab
guest
Wanna post a correction for this tab? Suggest correction