Oops, an error
Loading. Please wait.

Quiero Mas (De Ti) tab

by Rojo
46 views 1 this week
no commentswrite comment
1 2 3 4 5
3 more votes to show rating
add to favorites
×
Save as Personal and add changes to this tab that will be seen only by you. Learn more ›
×
You can save this tab as Personal to edit and correct it or add notes. All changes will be seen only by you. Learn more »
launch autoscroll
font size
0
reset
how to read this tab
guitar tuner
edit
Autoscroll
slow
fast
+/-
esc
set tempo
stop
Quiero más (de ti)///Versión Guitarra eléctrica/////


Cm7                                          //Bb-Bb-G#-G#-Bb//
  Tu amor me hace vivir las aventuras más emocionantes
Cm7                     Eb               F                Bb  F
  Tu amor me baña con dulzura y me transforma a cada instante UOOH...
         Gm            Eb         Cm7            F       A#5
  Y tu amor me hace danzar Y tu amor me hace querer cantar

CORO:

    Bb          F         Gm            Eb
////Quiero más, más de ti, quiero más, más de ti yo////


Cm7                                          //Bb-Bb-G#-G#-Bb//
  Tu amor me guía en medio de la oscuridad más tenebrosa
Cm7                     Eb               F           Bb   F
  Tu amor me arrastra como un río y me sacude la tristeza UOOH...
         Gm              Eb       Cm7             F       A#5
  Y tu amor me hace brincar, y tu amor me hace querer gritar

CORO:

    Bb          F         Gm            Eb
////Quiero más, más de ti, quiero más, más de ti yo////

G#                Eb                   Gm
Me obsesiona tu amor Me abraza el corazón
           F                  G#
Y lejos de ti yo no quiero estar jamás

Bb-F-Gm-Eb (puedes tocar esto o si no lo de abajo)

e--------------------------------------------------------------
B---------------------13-13-13-13------------------------------
G---12/15-15-15-15-15-------------15-14-15-14-14---------------
D------------------------------------------------17*-15-15-15--
A--------------------------------------------------------------
E--------------------------------------------------------------
(la * significa que va 5 veces esa nota)

e>--------------------------------------------------------------------
B>---------13--15-----13--13--13--11--11--11--8--8--8--6--6--6--5--5--
G>--12--15--------17--12--12--12--10--10--10--7--7--7--5--5--5--4--4--
D>--------------------10--10--10---8---8---8--5--5--5--3--3--3--2--2--
A>--------------------------------------------------------------------
E>--------------------------------------------------------------------

e>--------------------------------------------------------------------
B>---------13--15-----13--13--13--11--11--11--8--8--8-----------------
G>--12--15--------17--12--12--12--10--10--10--7--7--7-----------------
D>--------------------10--10--10---8---8---8--5--5--5-----------------
A>--------------------------------------------------------------------
E>--------------------------------------------------------------------


CORO:

    Bb          F         Gm            Eb
////Quiero más, más de ti, quiero más, más de ti yo////


    Bb  F  Gm  Eb
////Uuoh, uuoh mas de ti Yo////

Bb
  Quiero más!!!!


FINAL:


Esperas que la acústica termine de hacer
Gm-Eb unas 4 veces

De ahí viene esto en guitarra elec.

e----------------------
B----------------------
G----------------------
D--5-5-----------------
A--5-5-----------------
E--3-3-----------------

Espera que termine la nota Eb
De la guitar. Acust.

De ahí:

e----------------------
B----------------------
G----------------------
D--5-5--8-8-8-8--------
A--5-5--8-8-8-8--------
E--3-3--6-6-6-6--------


e-----------------------------
B-----------------------------
G-----------------------------
D--5-5--8-8-8-8--10--10--10---
A--5-5--8-8-8-8--10--10--10---
E--3-3--6-6-6-6---8---8---8---


e-------------------------------
B-------------------------------
G-------------------------------
D--8-8-8---5-5-5----------------
A--8-8-8---5-5-5----------------
E--6-6-6---3-3-3----------------

Guitarra eléctrica

e-----------------------------------
B----------------13-13-13----13-15--
G--12-15-12--15-----------15--------
D-----------------------------------
A-----------------------------------
E-----------------------------------

e-----------------------------------
B----------------13-13-13-----------
G--12-15-12--15-----------15-12-----
D-----------------------------------
A-----------------------------------
E-----------------------------------
Acordes:

   Eb
E)-1-
B)-4-
G)-3-
D)-1-
A)-1-
E)-X-            (X Nose toca)

  Cm7
E)-3-
B)-4-
G)-3-
D)-5-
A)-3-
E)-X-

  A#5
E)-X-
B)-X-
G)-X-
D)-8-
A)-8-
E)-6-


Quiero dedicar esta cancion primero a mi
Señor Jesús

---------------------------------------------
Bueno eso es quiero mas de ti de ROJO
Si en partes de repetir una nota me
Equivoque pues perdónenme
Cualquier duda, cualquier queja
Enviar correo a arlequin90_4@
Que DIOS LES BENDIGA

            
            
Suggest correction
Creating personal tab
Creating personal tab
You can edit any tab online and save it as your Personal.

You can edit, replace or remove any tab part or add personal notes – all changes will be seen only by you.

Personal tabs can be accessed anytime from any device, even offline.
Learn more »
Give kudos to tab author, rate the tab!
1 2 3 4 5
comments
print report bad tab
guest
Wanna post a correction for this tab? Suggest correction