Oops, an error
Loading. Please wait.

Quiero Volar tab

by Rojo
49 views 1 this week
no commentswrite comment
1 2 3 4 5
3 more votes to show rating
add to favorites
×
Save as Personal and add changes to this tab that will be seen only by you. Learn more ›
×
You can save this tab as Personal to edit and correct it or add notes. All changes will be seen only by you. Learn more »
launch autoscroll
font size
0
reset
how to read this tab
guitar tuner
edit
Autoscroll
slow
fast
+/-
esc
set tempo
stop
INTRO:

E---------------------7--------
B--5-5/7-7--8-8/10-10--10-8-7--
D------------------------------
A------------------------------
E------------------------------

E---------------------7--------
B--5-5/7-7--8-8/10-10--10-8-7--
D------------------------------
A------------------------------
E------------------------------

E---------------------7--------
B--5-5/7-7--8-8/10-10--10-8-7--
D------------------------------
A------------------------------
E------------------------------

E------------------------------
B--5-5-7-7-8/10\12/15-----------
D-------------------------------
A-------------------------------
E-------------------------------


SOLO1:

 C#m               A                 C#m
No es tan fácil decirlo, es la verdad
                        G#7
pero el deseo está en mí
 C#m                  A                   C#m
y es más fuerte y mas grande que mi voluntad
                   G#7  Bm                   C
quiero vivir la verdad  Es lo que busco y quiero encontrar
       Em                          D
quiero ser lo que tu quieras para mí.


CORO:

         G    D/F#      Em               C        Am      D
Quiero volar como el aguila, tu voz escuchar y tu mano tomar
         G        D/F#    Em              C        Am      D
Quiero dejar mis cargas atras ayuda a mi fe, te quiero tocar.
         Am  Em-D         Am  Em-D
Quiero volar A donde tu estas.


SOLO2:

C#m               A                 C#m
Pon el deseo que queme en mi interior
                      G#7
cambia todo lo que soy
C#m                   A                 C#m                 G#7
Quiero hacer lo que siento en mi corazon vivir solo para ti
Bm                C
Te necesito y me quiero entregar
      Em                           D
no encuentro otra razón para existir.

CORO:

Em   C               Em                       F
Quiero ver tu rostro hoy suspenderme en tu amor
Em   C             Em D
Dejare que tu Verdad  me conquiste.

ACORDES:

 C#m: x46654
   A: 002220
 G#7: x64574
  Bm: x24432
   C: 032020
  Em: 022000
   D: 000232
D/F#: 200232

            
            
Suggest correction
Creating personal tab
Creating personal tab
You can edit any tab online and save it as your Personal.

You can edit, replace or remove any tab part or add personal notes – all changes will be seen only by you.

Personal tabs can be accessed anytime from any device, even offline.
Learn more »
Give kudos to tab author, rate the tab!
1 2 3 4 5
comments
print report bad tab
guest
Wanna post a correction for this tab? Suggest correction