Oops, an error
Loading. Please wait.

Te Necesito tab

by Rojo
32 views 1 this week
no commentswrite comment
1 2 3 4 5
3 more votes to show rating
add to favorites
×
Save as Personal and add changes to this tab that will be seen only by you. Learn more ›
×
You can save this tab as Personal to edit and correct it or add notes. All changes will be seen only by you. Learn more »
launch autoscroll
font size
0
reset
how to read this tab
guitar tuner
edit
Autoscroll
slow
fast
+/-
esc
set tempo
stop
INTRO

Dadd2-A/D-Bm-A-Gadd2-D*-Eadd2

e:----------------------------------
B:-----------------8-8-7-7----------
G:--7-7-6-6--------7-7-7-7--9-9-7--- x2
D:--7-7-7-7--9-9-7----------9-9-7---
A:-----------9-9-7------------------

D                      Bm
Nunca te apartes de mi vida
G                A     A/D#
Eres mi única salida
 D                     Bm
Te quiero siempre a mi lado
 G                    A
Tu amor me tiene cautivado
 G                A     F#m    Bm
Tú me haces tan feliz   oh oh ouo
  G                A
Cada día todo te daré

CORO

D
Te necesito
Bm           G                 A
Eres mi vida no tengo nada sin ti Oh oh oh...

e:----------------------------------
B:-----------------8-8-7-7----------
G:--7-7-6-6--------7-7-7-7--9-9-7---
D:--7-7-7-7--9-9-7----------9-9-7---
A:-----------9-9-7------------------

se repite la letra y luego el solo

SOLO

Em-F#m-G-A (esto acompaña al solo, tienes que escuchar la cancion)

e:-------------------------------14b-14/12-10-12-----
B:-12b-12-10----10-------------------------------12--
G:-----------12----12-11-9-11b-----------------------
D:---------------------------------------------------

e:---------------------------------
B:-14b-12b------------12-----------
G:---------14b--12-14----14--------
D:--------------------------12b----

e:-----------------------------------------------------
B:-10-12-10----------10-12-10-----------10p12p10--15b--
G:----------12-11-12----------12-11-12-----------------
D:-----------------------------------------------------


CORO

D           Dadd2-C#add2-Cadd2-Bm
Te necesito
Bm           G                 A
Eres mi vida no tengo nada sin ti Oh oh oh...
FINAL

e:----------------------------------
B:-----------------8-8-7-7----------
G:--7-7-6-6--------7-7-7-7--9-9-7--- x2
D:--7-7-7-7--9-9-7----------9-9-7---
A:-----------9-9-7------------------


Acordes

    D= X00232
   Bm= X24432
    G= 320033
    A= 002220
 A/D#= 006660

(para el Intro)

Dadd2=557755
  A/D=557655
   Bm= 799777
    A=577655
Gadd2=555785
   D*=555775
Eadd2=779977

en el coro despues del SOLO donde hace la pausa
estos son los acordes

 Dadd2= 557755
C#add2= 446644
 Cadd2= 335533
    Bm=x24432


bueno eso es todo espero les sirva de mucho... DLB
a los que les prometi el Intro y el Solo aqui se los dejo

dudas a: li_shinron@
Suggest correction
Creating personal tab
Creating personal tab
You can edit any tab online and save it as your Personal.

You can edit, replace or remove any tab part or add personal notes – all changes will be seen only by you.

Personal tabs can be accessed anytime from any device, even offline.
Learn more »
Give kudos to tab author, rate the tab!
1 2 3 4 5
comments
print report bad tab
guest
Wanna post a correction for this tab? Suggest correction