Oops, an error
Loading. Please wait.

Its A Cold Night For Alligators bass

223 views 18 this week
no commentswrite comment
1 2 3 4 5
3 more votes to show rating
add to favorites
×
Save as Personal and add changes to this tab that will be seen only by you. Learn more ›
×
You can save this tab as Personal to edit and correct it or add notes. All changes will be seen only by you. Learn more »
launch autoscroll
font size
0
reset
guitar tuner
edit
Autoscroll
slow
fast
+/-
esc
set tempo
stop
[Intro]
G|---------------------------------|----------------------------|
D|---------------------------------|----------------------------|
A|-0------7-7-7--6--4--2--4--6--2--|-4-4---4-4-4---4-4---4-4-4--|
E|---------------------------------|----------------------------|

[Verse]
("It's a Cold Night for Alligators...")
G|----------------------------|------------------------------------------|
D|----------------------------|------------------------------------------|
A|-4-4---4-4-4---4-4---4-4-4--|-2-2---2-2-2---4-4---4-4-4---4-4---4-4-4--|
E|----------------------------|------------------------------------------|

("The Dogs Choke On Their Barking...")
G|----------------------------|------------------------------------------|
D|----------------------------|------------------------------------------|
A|-4-4---4-4-4---4-4---4-4-4--|-2-2---2-2-2---4-4---4-4-4---4-4---4-4-4--|
E|----------------------------|------------------------------------------|

[Intro]
G|---------------------------------|----------------------------|
D|---------------------------------|----------------------------|
A|-0------7-7-7--6--4--2--4--6--2--|-4-4---4-4-4---4-4---4-4-4--|
E|---------------------------------|----------------------------|

[Verse]
("It's a Cold Night for Alligators...")
G|----------------------------|------------------------------------------|
D|----------------------------|------------------------------------------|
A|-4-4---4-4-4---4-4---4-4-4--|-2-2---2-2-2---4-4---4-4-4---4-4---4-4-4--|
E|----------------------------|------------------------------------------|

("It's a Cold Night for Alligators...")
G|----------------------------|------------------------------------------|
D|----------------------------|------------------------------------------|
A|-4-4---4-4-4---4-4---4-4-4--|-2-2---2-2-2---4-4---4-4-4---4-4---4-4-4--|
E|----------------------------|------------------------------------------|

[Intro]
G|---------------------------------|----------------------------|
D|---------------------------------|----------------------------|
A|-0------7-7-7--6--4--2--4--6--2--|-4-4---4-4-4---4-4---4-4-4--|
E|---------------------------------|----------------------------|

[Solo]
G|----------------------------|----------------------------|----------------------------|
D|----------------------------|----------------------------|----------------------------|
A|-4-4---4-4-4---4-4---4-4-4--|-4-4---4-4-4---4-4---4-4-4--|-2-2---2-2-2---2-2---2-2-2--|
E|----------------------------|----------------------------|----------------------------|

G|----------------------------|----------------------------|----------------------------|
D|----------------------------|----------------------------|----------------------------|
A|-4-4---4-4-4---4-4---4-4-4--|-4-4---4-4-4---4-4---4-4-4--|-4-4---4-4-4---4-4---4-4-4--|
E|----------------------------|----------------------------|----------------------------|

[Intro]
G|---------------------------------|----------------------------|
D|---------------------------------|----------------------------|
A|-0------7-7-7--6--4--2--4--6--2--|-4-4---4-4-4---4-4---4-4-4--|
E|---------------------------------|----------------------------|


[Verse]
("It's a Cold Night for Alligators...")
G|----------------------------|------------------------------------------|
D|----------------------------|------------------------------------------|
A|-4-4---4-4-4---4-4---4-4-4--|-2-2---2-2-2---4-4---4-4-4---4-4---4-4-4--|
E|----------------------------|------------------------------------------|

("Forever Hear The Swamp Birds Screaming...")
G|----------------------------|------------------------------------------|
D|----------------------------|------------------------------------------|
A|-4-4---4-4-4---4-4---4-4-4--|-2-2---2-2-2---4-4---4-4-4---4-4---4-4-4--|
E|----------------------------|------------------------------------------|

[Intro]
G|---------------------------------|----------------------------|
D|---------------------------------|----------------------------|
A|-0------7-7-7--6--4--2--4--6--2--|-4-4---4-4-4---4-4---4-4-4--|
E|---------------------------------|----------------------------|

[Verse]
("It's a Cold Night for Alligators...")
G|----------------------------|------------------------------------------|
D|----------------------------|------------------------------------------|
A|-4-4---4-4-4---4-4---4-4-4--|-2-2---2-2-2---4-4---4-4-4---4-4---4-4-4--|
E|----------------------------|------------------------------------------|

("It's a Cold Night for Alligators...")
G|----------------------------|------------------------------------------|
D|----------------------------|------------------------------------------|
A|-4-4---4-4-4---4-4---4-4-4--|-2-2---2-2-2---4-4---4-4-4---4-4---4-4-4--|
E|----------------------------|------------------------------------------|

[Outro]
G|---------------------------------|----------------------------|
D|---------------------------------|----------------------------|
A|-0------7-7-7--6--4--2--4--6--2--|-4-4---4-4-4---4-4---4-4-4--|
E|---------------------------------|----------------------------|

G|---------------------------------|----------------------------|---------------------------------|------|
D|---------------------------------|----------------------------|---------------------------------|------|
A|-0------7-7-7--6--4--2--4--6--2--|-4-4---4-4-4---4-4---4-4-4--|-0------7-7-7--6--4--2--4--6--2--|-4----|
E|---------------------------------|----------------------------|---------------------------------|------|



it's a cold night for alligators 
it's a cold night for dogs
the dogs choke on their barking
when they see alligator persons
in the bog and fog

it's a cold night for alligators 
when men turn into them in the night
it's a cold night for alligators 
it's a cold night for their might

it's a cold night for alligators 
hiding behind trees with moss
forever hear the swamp birds screaming
they forever a loss

it's a cold night for alligators 
in the blend
it's a cold night for alligators 
a perfect monster has no end

            
            
Suggest correction
Creating personal tab
Creating personal tab
You can edit any tab online and save it as your Personal.

You can edit, replace or remove any tab part or add personal notes – all changes will be seen only by you.

Personal tabs can be accessed anytime from any device, even offline.
Learn more »
Give kudos to tab author, rate the tab!
1 2 3 4 5
comments
print report bad tab
guest
You may want to rate the tab now too:
select rating
Wanna post a correction for this tab? Suggest correction