Oops, an error
Loading. Please wait.

Stand For The Fire Demon bass

169 views 6 this week
no commentswrite comment
1 2 3 4 5
3 more votes to show rating
add to favorites
×
Save as Personal and add changes to this tab that will be seen only by you. Learn more ›
×
You can save this tab as Personal to edit and correct it or add notes. All changes will be seen only by you. Learn more »
launch autoscroll
font size
0
reset
guitar tuner
edit
Autoscroll
slow
fast
+/-
esc
set tempo
stop
[Intro]
G|--------------------------|--------------------------|--------------------------|--------------------------|
D|--------------------------|--------------------------|--------------------------|--------------------------|
A|-7-7-7-7-7--0---3---5-7-5-|-7-7-7-7-7--0---3---5-7-5-|-7-7-7-7-7--0---3---5-7-5-|-7-7-7-7-7--0---3---5-7-5-|
E|--------------------------|--------------------------|--------------------------|--------------------------|

[Verse]
("Stand For The Fire Demon...")
G|---------------------|---------------------|---------------------|---------------------|
D|---------------------|---------------------|---------------------|---------------------|
A|-7-7-7-7-7---3---5---|-7-7-7-7-7---3---5---|-7-7-7-7-7---3---5---|-7-7-7-7-7---3---5---|
E|---------------------|---------------------|---------------------|---------------------|

G|---------------------|---------------------|---------------------|---------------------|
D|---------------------|---------------------|---------------------|---------------------|
A|-7-7-7-7-7---3---5---|-7-7-7-7-7---3---5---|-7-7-7-7-7---3---5---|-7-7-7-7-7---3---5---|
E|---------------------|---------------------|---------------------|---------------------|

G|---------------------|---------------------|---------------------|---------------------|
D|---------------------|---------------------|---------------------|---------------------|
A|-7-7-7-7-7---3---5---|-7-7-7-7-7---3---5---|-7-7-7-7-7---3---5---|-7-7-7-7-7---3---5---|
E|---------------------|---------------------|---------------------|---------------------|

[Intro]
G|--------------------------|--------------------------|--------------------------|--------------------------|
D|--------------------------|--------------------------|--------------------------|--------------------------|
A|-7-7-7-7-7--0---3---5-7-5-|-7-7-7-7-7--0---3---5-7-5-|-7-7-7-7-7--0---3---5-7-5-|-7-7-7-7-7--0---3---5-7-5-|
E|--------------------------|--------------------------|--------------------------|--------------------------|

[Verse]
("Stand For The Fire Demon...")
G|---------------------|---------------------|---------------------|---------------------|
D|---------------------|---------------------|---------------------|---------------------|
A|-7-7-7-7-7---3---5---|-7-7-7-7-7---3---5---|-7-7-7-7-7---3---5---|-7-7-7-7-7---3---5---|
E|---------------------|---------------------|---------------------|---------------------|

G|---------------------|---------------------|---------------------|---------------------|
D|---------------------|---------------------|---------------------|---------------------|
A|-7-7-7-7-7---3---5---|-7-7-7-7-7---3---5---|-7-7-7-7-7---3---5---|-7-7-7-7-7---3---5---|
E|---------------------|---------------------|---------------------|---------------------|

G|---------------------|---------------------|---------------------|---------------------|
D|---------------------|---------------------|---------------------|---------------------|
A|-7-7-7-7-7---3---5---|-7-7-7-7-7---3---5---|-7-7-7-7-7---3---5---|-7-7-7-7-7---3---5---|
E|---------------------|---------------------|---------------------|---------------------|

G|---------------------|---------------------|---------------------|---------------------|
D|---------------------|---------------------|---------------------|---------------------|
A|-7-7-7-7-7---3---5---|-7-7-7-7-7---3---5---|-7-7-7-7-7---3---5---|-7-7-7-7-7---3---5---|
E|---------------------|---------------------|---------------------|---------------------|

G|---------------------|---------------------|---------------------|---------------------|
D|---------------------|---------------------|---------------------|---------------------|
A|-7-7-7-7-7---3---5---|-7-7-7-7-7---3---5---|-7-7-7-7-7---3---5---|-7-7-7-7-7---3---5---|
E|---------------------|---------------------|---------------------|---------------------|

[Intro]
G|--------------------------|--------------------------|--------------------------|--------------------------|
D|--------------------------|--------------------------|--------------------------|--------------------------|
A|-7-7-7-7-7--0---3---5-7-5-|-7-7-7-7-7--0---3---5-7-5-|-7-7-7-7-7--0---3---5-7-5-|-7-7-7-7-7--0---3---5-7-5-|
E|--------------------------|--------------------------|--------------------------|--------------------------|


[Solo]
G|--------------------------|--------------------------|--------------------------|--------------------------|
D|--------------------------|--------------------------|--------------------------|--------------------------|
A|-7-7-7-7-7--0---3---5-7-5-|-7-7-7-7-7--0---3---5-7-5-|-7-7-7-7-7--0---3---5-7-5-|-7-7-7-7-7--0---3---5-7-5-|
E|--------------------------|--------------------------|--------------------------|--------------------------|

G|--------------------------|--------------------------|--------------------------|--------------------------|
D|--------------------------|--------------------------|--------------------------|--------------------------|
A|-7-7-7-7-7--0---3---5-7-5-|-7-7-7-7-7--0---3---5-7-5-|-7-7-7-7-7--0---3---5-7-5-|-7-7-7-7-7--0---3---5-7-5-|
E|--------------------------|--------------------------|--------------------------|--------------------------|

G|--------------------------|--------------------------|--------------------------|--------------------------|
D|--------------------------|--------------------------|--------------------------|--------------------------|
A|-7-7-7-7-7--0---3---5-7-5-|-7-7-7-7-7--0---3---5-7-5-|-7-7-7-7-7--0---3---5-7-5-|-7-7-7-7-7--0---3---5-7-5-|
E|--------------------------|--------------------------|--------------------------|--------------------------|


[Verse]
G|---------------------|---------------------|---------------------|---------------------|
D|---------------------|---------------------|---------------------|---------------------|
A|-7-7-7-7-7---3---5---|-7-7-7-7-7---3---5---|-7-7-7-7-7---3---5---|-7-7-7-7-7---3---5---| **Bass Only**
E|---------------------|---------------------|---------------------|---------------------|

("Stand For The Fire Demon...")
G|---------------------|---------------------|---------------------|---------------------|
D|---------------------|---------------------|---------------------|---------------------|
A|-7-7-7-7-7---3---5---|-7-7-7-7-7---3---5---|-7-7-7-7-7---3---5---|-7-7-7-7-7---3---5---|
E|---------------------|---------------------|---------------------|---------------------|

G|---------------------|---------------------|---------------------|---------------------|
D|---------------------|---------------------|---------------------|---------------------|
A|-7-7-7-7-7---3---5---|-7-7-7-7-7---3---5---|-7-7-7-7-7---3---5---|-7-7-7-7-7---3---5---|
E|---------------------|---------------------|---------------------|---------------------|

G|---------------------|---------------------|---------------------|---------------------|
D|---------------------|---------------------|---------------------|---------------------|
A|-7-7-7-7-7---3---5---|-7-7-7-7-7---3---5---|-7-7-7-7-7---3---5---|-7-7-7-7-7---3---5---|
E|---------------------|---------------------|---------------------|---------------------|

G|---------------------|---------------------|---------------------|---------------------|
D|---------------------|---------------------|---------------------|---------------------|
A|-7-7-7-7-7---3---5---|-7-7-7-7-7---3---5---|-7-7-7-7-7---3---5---|-7-7-7-7-7---3---5---|
E|---------------------|---------------------|---------------------|---------------------|

G|---------------------|---------------------|---------------------|---------------------|
D|---------------------|---------------------|---------------------|---------------------|
A|-7-7-7-7-7---3---5---|-7-7-7-7-7---3---5---|-7-7-7-7-7---3---5---|-7-7-7-7-7---3---5---|
E|---------------------|---------------------|---------------------|---------------------|

G|---------------------|---------------------|---------------------|---------------------|
D|---------------------|---------------------|---------------------|---------------------|
A|-7-7-7-7-7---3---5---|-7-7-7-7-7---3---5---|-7-7-7-7-7---3---5---|-7-7-7-7-7---3---5---|
E|---------------------|---------------------|---------------------|---------------------|

[Outro]
G|--------------------------|--------------------------|--------------------------|--------------------------|
D|--------------------------|--------------------------|--------------------------|--------------------------|
A|-7-7-7-7-7--0---3---5-7-5-|-7-7-7-7-7--0---3---5-7-5-|-7-7-7-7-7--0---3---5-7-5-|-7-7-7-7-7--0---3---5-7-5-|
E|--------------------------|--------------------------|--------------------------|--------------------------|

G|--------------------------|--------------------------|--------------------------|--------------------------|
D|--------------------------|--------------------------|--------------------------|--------------------------|
A|-7-7-7-7-7--0---3---5-7-5-|-7-7-7-7-7--0---3---5-7-5-|-7-7-7-7-7--0---3---5-7-5-|-7-7-7-7-7--0---3---5-7-5-|
E|--------------------------|--------------------------|--------------------------|--------------------------|

G|--------------------------|--------------------------|--------------------------|--------------------------|
D|--------------------------|--------------------------|--------------------------|--------------------------|
A|-7-7-7-7-7--0---3---5-7-5-|-7-7-7-7-7--0---3---5-7-5-|-7-7-7-7-7--0---3---5-7-5-|-7-7-7-7-7--0---3---5-7-5-|
E|--------------------------|--------------------------|--------------------------|--------------------------|

G|--------------------------|--------------------------|--------------------------|--------------------------|
D|--------------------------|--------------------------|--------------------------|--------------------------|
A|-7-7-7-7-7--0---3---5-7-5-|-7-7-7-7-7--0---3---5-7-5-|-7-7-7-7-7--0---3---5-7-5-|-7-7-7-7-7--0---3---5-7-5-|
E|--------------------------|--------------------------|--------------------------|--------------------------|


********************************************************************************************
There ain't nothing to this song, only the 2 parts, the "Intro" part and the "Verse" part. 
The "Intro" never has any vocals accompanying it. 

            
            
Suggest correction
Creating personal tab
Creating personal tab
You can edit any tab online and save it as your Personal.

You can edit, replace or remove any tab part or add personal notes – all changes will be seen only by you.

Personal tabs can be accessed anytime from any device, even offline.
Learn more »
Give kudos to tab author, rate the tab!
1 2 3 4 5
comments
print report bad tab
guest
You may want to rate the tab now too:
select rating
Wanna post a correction for this tab? Suggest correction