Oops, an error
Loading. Please wait.

Safe And Warm In Hunters Arms chords

31 views 9 this week
no commentswrite comment
1 2 3 4 5
3 more votes to show rating
add to favorites
×
Save as Personal and add changes to this tab that will be seen only by you. Learn more ›
×
You can save this tab as Personal to edit and correct it or add notes. All changes will be seen only by you. Learn more »
launch autoscroll
font size
0
reset
transpose
0
reset
display chords
guitar tuner
edit
Autoscroll
slow
fast
+/-
esc
set tempo
stop
Strumming
There is no strumming pattern for this song yet. and get +5 IQ
[Intro]
[Riff] (x3)
  Gm                                                   Gm
E|----------------------------------------------------|----------------------------------------------------|
B|----------------------------------------------------|----------------------------------------------------|
G|--------------3--------------------3----------------|--3--------------------3--------------3-------------|
D|-----------5-----------5--3--------5-----------5----|-----------5--3--------5-----------5--5--------5----|
A|--5-------------------------------------------------|-----------------------------------5-----------5----|
E|--3-------------------------------------------------|-----------------------------------------------3----|

Bb C

[Verse 1]
Gm                               Gm
You're rising up and I'm falling down
                                       Gm
I should have stopped but I do not know how
                                  Bb
Just for now let's make things right
                   C                        Gm
We could have some fun, oh at least we've tried
                                 Gm
You've got your truth and I got mine
                                 Gm
So what's the use of blowing my mind
                                  Bb
Some kind of game where we both lose
             C
Who should I blame if it's not you

[Riff]
  Gm                                                   Gm
E|----------------------------------------------------|----------------------------------------------------|
B|----------------------------------------------------|----------------------------------------------------|
G|--------------3--------------------3----------------|--3--------------------3--------------3-------------|
D|-----------5-----------5--3--------5-----------5----|-----------5--3--------5-----------5--5--------5----|
A|--5-------------------------------------------------|-----------------------------------5-----------5----|
E|--3-------------------------------------------------|-----------------------------------------------3----|

[Chorus]
Gm      Bb            Eb      Dm
I can't break myself and I can't go on
Gm             Bb                  Eb          Dm
And your fake smiles in the only reply that I get
Gm      Bb              Eb     Dm
I can't be your judge and you can't be mine
Gm      Bb                        Eb          Dm
So I pray to God so he could take me out

[Riff]
  Gm                                                   Gm
E|----------------------------------------------------|----------------------------------------------------|
B|----------------------------------------------------|----------------------------------------------------|
G|--------------3--------------------3----------------|--3--------------------3--------------3-------------|
D|-----------5-----------5--3--------5-----------5----|-----------5--3--------5-----------5--5--------5----|
A|--5-------------------------------------------------|-----------------------------------5-----------5----|
E|--3-------------------------------------------------|-----------------------------------------------3----|

[Verse 2]
Gm                                 Gm
Now take a half and I'll take the rest
                               Gm
Oh babe I swear that I did my best
                             Bb
Why to pretend that we both care
             C
Times I did and you weren't there
Gm                                    Gm
I've got to run but my heart is bleeding
                                 Gm
The knife in back and I really mean it
                        Bb
Was it you or just someone
          C
All I can do is to take a run

[Riff]
  Gm                                                   Gm
E|----------------------------------------------------|----------------------------------------------------|
B|----------------------------------------------------|----------------------------------------------------|
G|--------------3--------------------3----------------|--3--------------------3--------------3-------------|
D|-----------5-----------5--3--------5-----------5----|-----------5--3--------5-----------5--5--------5----|
A|--5-------------------------------------------------|-----------------------------------5-----------5----|
E|--3-------------------------------------------------|-----------------------------------------------3----|

[Chorus]
Gm      Bb            Eb      Dm
I can't break myself and I can't go on
Gm             Bb                  Eb          Dm
And your fake smiles in the only reply that I get
Gm      Bb              Eb     Dm
I can't be your judge and you can't be mine
Gm      Bb                        Eb          Dm
So I pray to God so he could take me out

[Solo]
Gm

[Chorus]
Gm      Bb            Eb      Dm
I can't break myself and I can't go on
Gm             Bb                  Eb          Dm
And your fake smiles in the only reply that I get
Gm      Bb              Eb     Dm
I can't be your judge and you can't be mine
Gm      Bb                        Eb          Dm
So I pray to God so he could take me out
Suggest correction
Creating personal tab
Creating personal tab
You can edit any tab online and save it as your Personal.

You can edit, replace or remove any tab part or add personal notes – all changes will be seen only by you.

Personal tabs can be accessed anytime from any device, even offline.
Learn more »
Give kudos to tab author, rate the tab!
1 2 3 4 5
comments
print report bad tab
guest
You may want to rate the tab now too:
select rating
Wanna post a correction for this tab? Suggest correction