Oops, an error
Loading. Please wait.

Youth Bailed Back To Hell tab

95 views 1 this week
no commentswrite comment
1 2 3 4 5
3 more votes to show rating
add to favorites
×
Save as Personal and add changes to this tab that will be seen only by you. Learn more ›
×
You can save this tab as Personal to edit and correct it or add notes. All changes will be seen only by you. Learn more »
launch autoscroll
font size
0
reset
how to read this tab
guitar tuner
edit
Autoscroll
slow
fast
+/-
esc
set tempo
stop
Youth Bailed (Back to Hell)


rollerball


TRANSCRIBED BY RUDY GUZMAN


guzman_84@hotmail.com




                                               
e:------------------------------------------------------------------|
B:------------------------------------------------------------------|
G:------------------------------------------------------------------|
D:----------------------------------------2-7-7-7--9----------------|
A:-7--10--7--10--7-7--5--10-10-7-10-10-10-0-5-5-0--7--10-10--7-10-7-|
E:-0--0---0--0---0-0--0--0--0--0-0--0--0----0-0----0--0--0---0-0--0-|


   gt1
e:------------------------------------------------------------------|
B:------------------------------------------------------------------|
G:------------------------------------------------------------------|
D:----------------------------------------2-7-7-7--9----------------|
A:-7--10--7--10--7-7--5--10-10-7-10-10-10-0-5-5-0--7--10-10--7-10-7-|
E:-0--0---0--0---0-0--0--0--0--0-0--0--0----0-0----0--0--0---0-0--0-|
   gt2
e:------------------------------------------------------------------|
B:------------------------------------------------------------------|
G:------------------------------------------------------------------|
D:----------------------------------------2-7-7-7--9----------------|
A:-7--10--7--10--7-7--5--10-10-7-10-10-10-0-5-5-0--7----------------|
E:-0--0---0--0---0-0--0--0--0--0-0--0--0----0-0----0----------------|

   gt1
e:------------------------------------------------------------------|
B:------------------------------------------------------------------|
G:------------------------------------------------------------------|
D:----------------------------------------2-7-7-7--9----------------|
A:-7--10--7--10--7-7--5--10-10-7-10-10-10-0-5-5-0--7--10-10--7-10-7-|
E:-0--0---0--0---0-0--0--0--0--0-0--0--0----0-0----0--0--0---0-0--0-|
   gt2
e:------------------------------------------------------------------|
B:------------------------------------------------------------------|
G:------------------------------------------------------------------|
D:-----------------9--7-------------------2-7------9----------------|
A:-----------------7--5-------------------0-5------7----------------|
E:-----------------0--0---------------------0------0----------------|

e:------------------------------------------------------------|
B:------------------------------------------------------------|
G:------------------------------------------------------------|
D:-9------9-7------7--2----------9----------------------------|
A:-7------7-5------5--0----5-----7----------------------------|
E:-0------0-0------0-------3-----0----------------------------|

  pm...............................................................
e:------------------------------------------------------------------|
B:------------------------------------------------------------------|
G:------------------------------------------------------------------|
D:----------------------------------------2-7-7-7--9----------------|
A:-7--10--7--10--7-7--5--10-10-7-10-10-10-0-5-5-0--7--10-10--7-10-7-|
E:-0--0---0--0---0-0--0--0--0--0-0--0--0----0-0----0--0--0---0-0--0-|

  pm................................................
e:------------------------------------------------------------------|
B:------------------------------------------------------------------|
G:------------------------------------------------------------------|
D:----------------------------------------2-7-7-7--9----------------|
A:-7--10--7--10--7-7--5--10-10-7-10-10-10-0-5-5-0--7--10-10--7-10-7-|
E:-0--0---0--0---0-0--0--0--0--0-0--0--0----0-0----0--0--0---0-0--0-|

e:------------------------------------------------------------|
B:------------------------------------------------------------|
G:------------------------------------------------------------|
D:---------7-------------------9----9---11--12--14------------|
A:-2---5---5---4---5---2----7--7--7-7---9---10--12---2--------|
E:-0---3-------5---3---0----0-----0-----0---0---0----0--------|

e:------------------------------------------------------------------|
B:------------------------------------------------------------------|
G:------------------------------------------------------------------|
D:----------------------------------------2-7-7-7--9----------------|
A:-7--10--7--10--7-7--5--10-10-7-10-10-10-0-5-5-0--7--10-10--7-10-7-|
E:-0--0---0--0---0-0--0--0--0--0-0--0--0----0-0----0--0--0---0-0--0-|


   gt1
e:------------------------------------------------------------------|
B:------------------------------------------------------------------|
G:------------------------------------------------------------------|
D:----------------------------------------2-7-7-7--9----------------|
A:-7--10--7--10--7-7--5--10-10-7-10-10-10-0-5-5-0--7--10-10--7-10-7-|
E:-0--0---0--0---0-0--0--0--0--0-0--0--0----0-0----0--0--0---0-0--0-|
   gt2
e:------------------------------------------------------------------|
B:------------------------------------------------------------------|
G:------------------------------------------------------------------|
D:-----------------9--7-------------------2-7-7-7--9----------------|
A:-7--10--7--10--7-7--5--10-10-7-10-10-10-0-5-5-0--7----------------|
E:-0--0---0--0---0-0--0--0--0--0-0--0--0----0-0----0----------------|


e:------------------------------------------------------------------|
B:------------------------------------------------------------------|
G:------------------------------------------------------------------|
D:-----------------9--7-------------------2-7------9----------------|
A:-7---------------7--5-------------------0-5------7----------------|
E:-0---------------0--0---------------------0------0----------------|

e:------------------------------------------------------------|
B:------------------------------------------------------------|
G:------------------------------------------------------------|
D:-9------9-7------7--2----------9----------------------------|
A:-7------7-5------5--0----5-----7----------------------------|
E:-0------0-0------0-------3-----0----------------------------|

  pm...............................................................
e:------------------------------------------------------------------|
B:------------------------------------------------------------------|
G:------------------------------------------------------------------|
D:----------------------------------------2-7-7-7--9----------------|
A:-7--10--7--10--7-7--5--10-10-7-10-10-10-0-5-5-0--7--10-10--7-10-7-|
E:-0--0---0--0---0-0--0--0--0--0-0--0--0----0-0----0--0--0---0-0--0-|

  pm................................................
e:------------------------------------------------------------------|
B:------------------------------------------------------------------|
G:------------------------------------------------------------------|
D:----------------------------------------2-7-7-7--9----------------|
A:-7--10--7--10--7-7--5--10-10-7-10-10-10-0-5-5-0--7--10-10--7-10-7-|
E:-0--0---0--0---0-0--0--0--0--0-0--0--0----0-0----0--0--0---0-0--0-|

e:------------------------------------------------------------|
B:------------------------------------------------------------|
G:------------------------------------------------------------|
D:---------7-------------------9----9---11--12--14-16---------|
A:-2---5---5---4---5---2----7--7--7-7---9---10--12-14--2------|
E:-0---3-------5---3---0----0-----0-----0---0---0--0---0------|

e:-------------------------------------------------------------|
B:-------------------------------------------------------------|
G:-------------------------------------------------------------|
D:---------7--------------------9----9---11--12--14-16---------|
A:-2---5---5---4---5-5--2----7--7--7-7---9---10--12-14--2------|
E:-0---3-------5---3-3--0----0-----0-----0---0---0--0---0------|

                                                     x3
e:-----------------------------------------------------|
B:-----------------------------------------------------|
G:-9-9-x-x--12-12-x-x-12-12-x-x-7-7-x-x-----7----------|
D:-9-9-x-x--12-12-x-x-12-12-x-x-7-7-x-x--5--7--5-4-2-2-|
A:-7-7-x-x--10-10-x-x-10-10-x-x-5-5-x-x--5--5--5-4-2-2-|
E:-0-0-x-x--0--0--x-x-0--0--x-x-0-0-x-x--3--0--3-2-0-0-|

e:-----------------------------------------------------------|
B:-----------------------------------------------------------|
G:-9-9-x-x--12-12-x-x-12-12-x-x-7-7-x-x-----7---7-7-7-7-7-7--|
D:-9-9-x-x--12-12-x-x-12-12-x-x-7-7-x-x--5--7---7-7-7-7-7-7--|
A:-7-7-x-x--10-10-x-x-10-10-x-x-5-5-x-x--5--5---5-5-5-5-5-5--|
E:-0-0-x-x--0--0--x-x-0--0--x-x-0-0-x-x--3--0----------------|

  solo 1
e:-----12--------------------------------------------------------------------------------|
B:--------12------------------------------------------------12-12-------------12-15bp-12-|
G:-14b-------14-12----------------13-14-13----------13------12-12----14p12----12---------|
D:-----------------14~~~----12-14----------14-12-14----14~~-------14-------14------------|
A:-----------------------14--------------------------------------------------------------|
E:---------------------------------------------------------------------------------------|

e:-----12b-12b-----------------------------------------|
B:-----15b-15bp12----12---------15b-15b----------------|
G:-------------------12--12-14b-14b-14b-12-------------|
D:-14-------------14-----------------------14-14~~~~~~-|
A:-----------------------------------------------------|
E:-----------------------------------------------------|

  solo 2
e:----------------------------------------9----------------------7-10---10----12~~~~~~~~-|
B:------------------9-9----11p9----9--------12p9----------9----8------8----8-------------|
G:-11b-11b-11bp9----9-9----11p9----9--11b--------12-11~~--9--9---------------------------|
D:---------------11-----11------11-------------------------------------------------------|
A:---------------------------------------------------------------------------------------|
E:---------------------------------------------------------------------------------------|

e:-15-15-15-15p14p12-15-15-15-15p14p12-15-15-15-15p14p12--15-17-15-12~~~~~---------|
B:---------------------------------------------------------------------------------|
G:---------------------------------------------------------------------------------|
D:---------------------------------------------------------------------------------|
A:---------------------------------------------------------------------------------|
E:---------------------------------------------------------------------------------|

e:------------------------------------------------------------------|
B:------------------------------------------------------------------|
G:------------------------------------------------------------------|
D:-----------------9--7-------------------2-7------9----------------|
A:-----------------7--5-------------------0-5------7----------------|
E:-----------------0--0---------------------0------0----------------|

e:------------------------------------------------------------------|
B:------------------------------------------------------------------|
G:------------------------------------------------------------------|
D:-----------------9--7-------------------2--------9----------------|
A:-----------------7--5-------------------0--------7----------------|
E:-----------------0--0----------------------------0----------------|

                                                                  x2
e:------------------------------------------------------------------|
B:------------------------------------------------------------------|
G:------------------------------------------------------------------|
D:-----------------9--7-------------------2-7------9----------------|
A:-----------------7--5-------------------0-5------7----------------|
E:-----------------0--0---------------------0------0----------------|

e:-----------------------------------------------------------|
B:-----------------------------------------------------------|
G:-----------------------------------------------------------|
D:---------7---------------------9----9---11--12--14--16-----|
A:-2---5---5---4---5--5--2----7--7--7-7---9---10--12--14--2--|
E:-0---3-------5---3--3--0----0-----0-----0---0---0---0---0--|

e:-------------------------------------------------------|
B:-------------------------------------------------------|
G:--------------------------------------------0----------|
D:---------7---------------------9----9---11--0----------|
A:-2---5---5---4---5--5--2----7--7--7-7---9---2---7---2--|
E:-0---3-------5---3--3--0----0-----0-----0---3---5---0--|


hillo son mex

21/04/10
Suggest correction
Creating personal tab
Creating personal tab
You can edit any tab online and save it as your Personal.

You can edit, replace or remove any tab part or add personal notes – all changes will be seen only by you.

Personal tabs can be accessed anytime from any device, even offline.
Learn more »
Give kudos to tab author, rate the tab!
1 2 3 4 5
comments
print report bad tab
guest
You may want to rate the tab now too:
select rating
Wanna post a correction for this tab? Suggest correction