Oops, an error
Loading. Please wait.

Whats The Matter Man tab

version 1
version 1

Whole song

Interactive

4,937 views 9 this week
1 commentread comment
1 2 3 4 5
2 more votes to show rating
add to favorites
×
Save as Personal and add changes to this tab that will be seen only by you. Learn more ›
×
You can save this tab as Personal to edit and correct it or add notes. All changes will be seen only by you. Learn more »
launch autoscroll
font size
0
reset
how to read this tab
guitar tuner
edit
Autoscroll
slow
fast
+/-
esc
set tempo
stop
Author
Difficulty
Band: Rollins Band
Song: What's The Matter, Man?
Album: Nice
Tab by: Thiago Samagaia (thii.knot@gmail.com)


0:00~0:05
first guitar
e----------------------------------------------------------------------------|
b----------------------------------------------------------------------------|
g-8-8-6-8-8-6-8-8-6-8--8-8/11-11-11-11-11-11-11------------------------------|
d-8-8-6-8-8-6-8-8-6-8--8-8/11-11-11-11-11-11-11-11-11-11-11-11-11-11-11------|
a-6-6-4-6-6-4-6-6-4-6--6-6/9--9--9--9--9--9--9--11-11-11-11-11-11-11-11------|
E-----------------------------------------------9--9--9--9--9--9--9--9-------|

0:05~0:10 (drums come in at 0:08)
first guitar
e----------------------------------------------------------------------------|
b----------------------------------------------------------------------------|
g-8-8-6-8-8-6-8-8-6-8--8-8/11-------11-------13-13-13-13-13-13-13-13-13------|
d-8-8-6-8-8-6-8-8-6-8--8-8/11-------11-------13-13-13-13-13-13-13-13-13------|
a-6-6-4-6-6-4-6-6-4-6--6-6/9--------9--------11-11-11-11-11-11-11-11-11------|
E----------------------------------------------------------------------------|


0:10~0:15
first guitar
e----------------------------------------------------------------------------|
b----------------------------------------------------------------------------|
g-8-8-6-8-8-6-8-8-6-8--8-8/11-------11---------------------------------------|
d-8-8-6-8-8-6-8-8-6-8--8-8/11-------11----------11-11-11-11-11-11-11-11------|
a-6-6-4-6-6-4-6-6-4-6--6-6/9--------9-----------11-11-11-11-11-11-11-11------|
E-----------------------------------------------9--9--9--9--9--9--9--9-------|


second guitar
e-----11-11------11-11------11-11------11-11-------11-----------------9-9----|
b10b11-----10b11------10b11------10b11-------10b11---10--12b14-12b14--9-9----|
g----------------------------------------------------------------------------|
d----------------------------------------------------------------------------|
a----------------------------------------------------------------------------|
E----------------------------------------------------------------------------|


e-9-9-9-9-9-9----------------------------------------------------------------|
b-9-9-9-9-9-9----------------------------------------------------------------|
g----------------------------------------------------------------------------|
d----------------------------------------------------------------------------|
a----------------------------------------------------------------------------|
E----------------------------------------------------------------------------|

0:15~0:20(first guitar)
e----------------------------------------------------------------------------|
b----------------------------------------------------------------------------|
g-8-8-6-8-8-6-8-8-6-8--8-8-11-------11-------13-13-13-13-13-13-13-13-13------|
d-8-8-6-8-8-6-8-8-6-8--8-8/11-------11-------13-13-13-13-13-13-13-13-13------|
a-6-6-4-6-6-4-6-6-4-6--6-6/9--------9--------11-11-11-11-11-11-11-11-11------|
E----------------------------------------------------------------------------|

second guitar
e------11-11-----11-11------11-11------11-11-------11------------------------|
b-10b11-----10b11------10b11------10b11-------10b11---10--12b14-12b14-14b16--|
g----------------------------------------------------------------------------|
d----------------------------------------------------------------------------|
a----------------------------------------------------------------------------|
E----------------------------------------------------------------------------|

e----------------------------------------------------------------------------|
b-14b16 (let ring)-----------------------------------------------------------|
g----------------------------------------------------------------------------|
d----------------------------------------------------------------------------|
a----------------------------------------------------------------------------|
E----------------------------------------------------------------------------|

0:20~0:25 (singing starts at 0:20)
first guitar
e----------------------------------------------------------------------------|
b----------------------------------------------------------------------------|
g-8-8-6-8-8-6-8-8-6-8--8-8/11-------11---------------------------------------|
d-8-8-6-8-8-6-8-8-6-8--8-8/11-------11----------11-11-11-11-11-11-11-11------|
a-6-6-4-6-6-4-6-6-4-6--6-6/9--------9-----------11-11-11-11-11-11-11-11------|
E-----------------------------------------------9--9--9--9--9--9--9--9-------|

0:25~0:30
first guitar
e----------------------------------------------------------------------------|
b----------------------------------------------------------------------------|
g-8-8-6-8-8-6-8-8-6-8--8-8/11-------11-------13-13-13-13-13-13-13-13-13------|
d-8-8-6-8-8-6-8-8-6-8--8-8/11-------11-------13-13-13-13-13-13-13-13-13------|
a-6-6-4-6-6-4-6-6-4-6--6-6/9--------9--------11-11-11-11-11-11-11-11-11------|
E----------------------------------------------------------------------------|

0:30~0:35
first guitar
e----------------------------------------------------------------------------|
b----------------------------------------------------------------------------|
g-8-8-6-8-8-6-8-8-6-8--8-8/11-------11---------------------------------------|
d-8-8-6-8-8-6-8-8-6-8--8-8/11-------11----------11-11-11-11-11-11-11-11------|
a-6-6-4-6-6-4-6-6-4-6--6-6/9--------9-----------11-11-11-11-11-11-11-11------|
E-----------------------------------------------9--9--9--9--9--9--9--9-------|

0:35~0:40
first guitar
e----------------------------------------------------------------------------|
b----------------------------------------------------------------------------|
g-8-8-6-8-8-6-8-8-6-8--8-8/11-------11-------13-13-13-13-13-13-13-13-13------|
d-8-8-6-8-8-6-8-8-6-8--8-8/11-------11-------13-13-13-13-13-13-13-13-13------|
a-6-6-4-6-6-4-6-6-4-6--6-6/9--------9--------11-11-11-11-11-11-11-11-11------|
E----------------------------------------------------------------------------|

0:39~0:44
first guitar
e----------------------------------------------------------------------------|
b----------------------------------------------------------------------------|
g-----------------------------8-8-8-8----------------------------------------|
d-9-9-x-x-x-6-6-6-6-9-9-x-x-x-8-8-8-8----------------------------------------|
a-9-9-x-x-x-6-6-6-6-9-9-x-x-x-6-6-6-6----------------------------------------|
E-7-7-x-x-x-4-4-4-4-7-7-x-x-x------------------------------------------------|

0:44~0:49
first guitar
e----------------------------------------------------------------------------|
b----------------------------------------------------------------------------|
g-----------------------------6----------------------------------------------|
d-9-9-x-x-x-6-6-6-6-9-9-x-x-x-6-(let ring)-----------------------------------|
a-9-9-x-x-x-6-6-6-6-9-9-x-x-x-4----------------------------------------------|
E-7-7-x-x-x-4-4-4-4-7-7-x-x-x------------------------------------------------|

0:49~0:53
first guitar
e----------------------------------------------------------------------------|
b----------------------------------------------------------------------------|
g-8-8-6-8-8-6-8-8-6-8--8-8/11-------11---------------------------------------|
d-8-8-6-8-8-6-8-8-6-8--8-8/11-------11----------11-11-11-11-11-11-11-11------|
a-6-6-4-6-6-4-6-6-4-6--6-6/9--------9-----------11-11-11-11-11-11-11-11------|
E-----------------------------------------------9--9--9--9--9--9--9--9-------|

second guitar
e------11-11-----11-11-----11-11-----11-11------11----------------9-9--------|
b10b11-----10b11-----10b11-----10b11------10b11--10--12b14-12b14--9-9--------|
g----------------------------------------------------------------------------|
d----------------------------------------------------------------------------|
a----------------------------------------------------------------------------|
E----------------------------------------------------------------------------|

e-9-9-9-9-9-9----------------------------------------------------------------|
b-9-9-9-9-9-9----------------------------------------------------------------|
g----------------------------------------------------------------------------|
d----------------------------------------------------------------------------|
a----------------------------------------------------------------------------|
E----------------------------------------------------------------------------|

0:53~0:58(first guitar)
e----------------------------------------------------------------------------|
b----------------------------------------------------------------------------|
g-8-8-6-8-8-6-8-8-6-8--8-8/11-------11-------13-13-13-13-13-13-13-13-13------|
d-8-8-6-8-8-6-8-8-6-8--8-8/11-------11-------13-13-13-13-13-13-13-13-13------|
a-6-6-4-6-6-4-6-6-4-6--6-6/9--------9--------11-11-11-11-11-11-11-11-11------|
E----------------------------------------------------------------------------|

second guitar
e------11-11-----11-11-----11-11------11-11------11--------------------------|
b-10b11-----10b11-----10b11------10b11------10b11---10--12b14-12b14--14b16---|
g----------------------------------------------------------------------------|
d----------------------------------------------------------------------------|
a----------------------------------------------------------------------------|
E----------------------------------------------------------------------------|

e----------------------------------------------------------------------------|
b-14b16 (let ring)-----------------------------------------------------------|
g----------------------------------------------------------------------------|
d----------------------------------------------------------------------------|
a----------------------------------------------------------------------------|
E----------------------------------------------------------------------------|

0:58~1:02
first guitar
e----------------------------------------------------------------------------|
b----------------------------------------------------------------------------|
g-8-8-6-8-8-6-8-8-6-8--8-8/11-------11---------------------------------------|
d-8-8-6-8-8-6-8-8-6-8--8-8/11-------11----------11-11-11-11-11-11-11-11------|
a-6-6-4-6-6-4-6-6-4-6--6-6/9--------9-----------11-11-11-11-11-11-11-11------|
E-----------------------------------------------9--9--9--9--9--9--9--9-------|

1:02~1:07
first guitar
e----------------------------------------------------------------------------|
b----------------------------------------------------------------------------|
g-8-8-6-8-8-6-8-8-6-8--8-8/11-------11-------13-13-13-13-13-13-13-13-13------|
d-8-8-6-8-8-6-8-8-6-8--8-8/11-------11-------13-13-13-13-13-13-13-13-13------|
a-6-6-4-6-6-4-6-6-4-6--6-6/9--------9--------11-11-11-11-11-11-11-11-11------|
E----------------------------------------------------------------------------|

1:07~1:12
first guitar
e----------------------------------------------------------------------------|
b----------------------------------------------------------------------------|
g-8-8-6-8-8-6-8-8-6-8--8-8/11-------11---------------------------------------|
d-8-8-6-8-8-6-8-8-6-8--8-8/11-------11----------11-11-11-11-11-11-11-11------|
a-6-6-4-6-6-4-6-6-4-6--6-6/9--------9-----------11-11-11-11-11-11-11-11------|
E-----------------------------------------------9--9--9--9--9--9--9--9-------|

1:12~1:17
first guitar
e----------------------------------------------------------------------------|
b----------------------------------------------------------------------------|
g-8-8-6-8-8-6-8-8-6-8--8-8/11-------11-------13-13-13-13-13-13-13-13-13------|
d-8-8-6-8-8-6-8-8-6-8--8-8/11-------11-------13-13-13-13-13-13-13-13-13------|
a-6-6-4-6-6-4-6-6-4-6--6-6/9--------9--------11-11-11-11-11-11-11-11-11------|
E----------------------------------------------------------------------------|

1:17~1:21
first guitar
e----------------------------------------------------------------------------|
b----------------------------------------------------------------------------|
g-8-8-6-8-8-6-8-8-6-8--8-8/11-------11---------------------------------------|
d-8-8-6-8-8-6-8-8-6-8--8-8/11-------11----------11-11-11-11-11-11-11-11------|
a-6-6-4-6-6-4-6-6-4-6--6-6/9--------9-----------11-11-11-11-11-11-11-11------|
E-----------------------------------------------9--9--9--9--9--9--9--9-------|

1:21~1:27
first guitar
e----------------------------------------------------------------------------|
b----------------------------------------------------------------------------|
g-8-8-6-8-8-6-8-8-6-8--8-8/11-------11-------13-13-13-13-13-13-13-13-13------|
d-8-8-6-8-8-6-8-8-6-8--8-8/11-------11-------13-13-13-13-13-13-13-13-13------|
a-6-6-4-6-6-4-6-6-4-6--6-6/9--------9--------11-11-11-11-11-11-11-11-11------|
E----------------------------------------------------------------------------|

1:27~1:31
first guitar
e----------------------------------------------------------------------------|
b----------------------------------------------------------------------------|
g-----------------------------8-8-8-8----------------------------------------|
d-9-9-x-x-x-6-6-6-6-9-9-x-x-x-8-8-8-8----------------------------------------|
a-9-9-x-x-x-6-6-6-6-9-9-x-x-x-6-6-6-6----------------------------------------|
E-7-7-x-x-x-4-4-4-4-7-7-x-x-x------------------------------------------------|

1:31~1:35
first guitar
e----------------------------------------------------------------------------|
b----------------------------------------------------------------------------|
g-----------------------------6----------------------------------------------|
d-9-9-x-x-x-6-6-6-6-9-9-x-x-x-6-(let ring)-----------------------------------|
a-9-9-x-x-x-6-6-6-6-9-9-x-x-x-4----------------------------------------------|
E-7-7-x-x-x-4-4-4-4-7-7-x-x-x------------------------------------------------|

SOLO (1:35~2:04)
second guitar
e----------------------------------------------------------------------------|
b----------------------------------------------------------------------------|
g-/10-10--10--10-(let ring)-13--13--13--13--13--13---14b15-14b15-14b15-14b15-|
d----------------------------------------------------------------------------|
a----------------------------------------------------------------------------|
E----------------------------------------------------------------------------|

1:45~1:50
first guitar
e----------------------------------------------------------------------------|
b----------------------------------------------------------------------------|
g-8-8-6-8-8-6-8-8-6-8--8-8/11-------11---------------------------------------|
d-8-8-6-8-8-6-8-8-6-8--8-8/11-------11----------11-11-11-11-11-11-11-11------|
a-6-6-4-6-6-4-6-6-4-6--6-6/9--------9-----------11-11-11-11-11-11-11-11------|
E-----------------------------------------------9--9--9--9--9--9--9--9-------|

second guitar
e----------------------------------------------------------------------------|
b----------------------------------------------------------------------------|
g----------------------------------------------------------------------------|
d----------------------------------------------------11-11-11-13-13-13-15-15-|
a--------------------------11-11-11-13-13-13-14-14-14------------------------|
E11-11-11-13-13-13-14-14-14--------------------------------------------------|

e----------------------------------------------------------------------------|
b----------------------------------------------------------------------------|
g--11-11-11-13-13-15-15------------------------------------------------------|
d----------------------------------------------------------------------------|
a----------------------------------------------------------------------------|
E----------------------------------------------------------------------------|

1:50~1:55
first guitar
e----------------------------------------------------------------------------|
b----------------------------------------------------------------------------|
g-8-8-6-8-8-6-8-8-6-8--8-8/11-------11-------13-13-13-13-13-13-13-13-13------|
d-8-8-6-8-8-6-8-8-6-8--8-8/11-------11-------13-13-13-13-13-13-13-13-13------|
a-6-6-4-6-6-4-6-6-4-6--6-6/9--------9--------11-11-11-11-11-11-11-11-11------|
E----------------------------------------------------------------------------|

second guitar
e---------------------------------------11----------16b17-16b17-16b17--------|
b----9-11-9------------------------10b11---14-11-14--------------------------|
g--8--------------11-8---8-11-8-11-------------------------------------------|
d-----------8-9-8------11----------------------------------------------------|
a----------------------------------------------------------------------------|
E----------------------------------------------------------------------------|

1:55~2:00
first guitar
e----------------------------------------------------------------------------|
b----------------------------------------------------------------------------|
g-8-8-6-8-8-6-8-8-6-8--8-8/11-------11---------------------------------------|
d-8-8-6-8-8-6-8-8-6-8--8-8/11-------11----------11-11-11-11-11-11-11-11------|
a-6-6-4-6-6-4-6-6-4-6--6-6/9--------9-----------11-11-11-11-11-11-11-11------|
E-----------------------------------------------9--9--9--9--9--9--9--9-------|

second guitar
e-15b17-14-------11----------------------------------------------------------|
b----------11-14----14-11----------------------------------------------------|
g-------------------------(distorted)-11-10-8-11-10-8-11-10-8-11-13-15-------|
d---------------------------(riff)----11-10-8-11-10-8-11-10-8-11-13-15-------|
a----------------------------------------------------------------------------|
E----------------------------------------------------------------------------|

2:00~2:04
first guitar
e----------------------------------------------------------------------------|
b----------------------------------------------------------------------------|
g-8-8-6-8-8-6-8-8-6-8--8-8/11-------11-------13-13-13-13-13-13-13-13-13------|
d-8-8-6-8-8-6-8-8-6-8--8-8/11-------11-------13-13-13-13-13-13-13-13-13------|
a-6-6-4-6-6-4-6-6-4-6--6-6/9--------9--------11-11-11-11-11-11-11-11-11------|
E----------------------------------------------------------------------------|

second guitar
e----------------------------------------------------------------------------|
b----------------------------------------------------------------------------|
g----------------------------------------------------------------------------|
d----------------------------------------------------------------------------|
a-11b13-11b13-11b13-11----------------------11b13-11b13-11b13----------------|
E----------------------11-9-6-4-2-4-2-4-6-9----------------------------------|

Solo end (2:04)2:04~2:09
first guitar
e----------------------------------------------------------------------------|
b----------------------------------------------------------------------------|
g-----------------------------8-8-8-8----------------------------------------|
d-9-9-x-x-x-6-6-6-6-9-9-x-x-x-8-8-8-8----------------------------------------|
a-9-9-x-x-x-6-6-6-6-9-9-x-x-x-6-6-6-6----------------------------------------|
E-7-7-x-x-x-4-4-4-4-7-7-x-x-x------------------------------------------------|

2:09~2:14
first guitar
e----------------------------------------------------------------------------|
b----------------------------------------------------------------------------|
g-----------------------------6----------------------------------------------|
d-9-9-x-x-x-6-6-6-6-9-9-x-x-x-6-(let ring)-----------------------------------|
a-9-9-x-x-x-6-6-6-6-9-9-x-x-x-4----------------------------------------------|
E-7-7-x-x-x-4-4-4-4-7-7-x-x-x------------------------------------------------|

2:14~2:19
first guitar
e----------------------------------------------------------------------------|
b----------------------------------------------------------------------------|
g-8-8-6-8-8-6-8-8-6-8--8-8/11-------11---------------------------------------|
d-8-8-6-8-8-6-8-8-6-8--8-8/11-------11----------11-11-11-11-11-11-11-11------|
a-6-6-4-6-6-4-6-6-4-6--6-6/9--------9-----------11-11-11-11-11-11-11-11------|
E-----------------------------------------------9--9--9--9--9--9--9--9-------|

second guitar
e------11-11-----11-11-----11-11-----11-11------11----------------9-9--------|
b10b11-----10b11-----10b11-----10b11------10b11--10--12b14-12b14--9-9--------|
g----------------------------------------------------------------------------|
d----------------------------------------------------------------------------|
a----------------------------------------------------------------------------|
E----------------------------------------------------------------------------|

e-9-9-9-9-9-9----------------------------------------------------------------|
b-9-9-9-9-9-9----------------------------------------------------------------|
g----------------------------------------------------------------------------|
d----------------------------------------------------------------------------|
a----------------------------------------------------------------------------|
E----------------------------------------------------------------------------|

2:19~2:23
first guitar
e----------------------------------------------------------------------------|
b----------------------------------------------------------------------------|
g-8-8-6-8-8-6-8-8-6-8--8-8/11-------11---------------------------------------|
d-8-8-6-8-8-6-8-8-6-8--8-8/11-------11----------11-11-11-11-11-11-11-11------|
a-6-6-4-6-6-4-6-6-4-6--6-6/9--------9-----------11-11-11-11-11-11-11-11------|
E-----------------------------------------------9--9--9--9--9--9--9--9-------|

2:23~-2:28
first guitar
e----------------------------------------------------------------------------|
b----------------------------------------------------------------------------|
g-8-8-6-8-8-6-8-8-6-8--8-8/11-------11-------13-13-13-13-13-13-13-13-13------|
d-8-8-6-8-8-6-8-8-6-8--8-8/11-------11-------13-13-13-13-13-13-13-13-13------|
a-6-6-4-6-6-4-6-6-4-6--6-6/9--------9--------11-11-11-11-11-11-11-11-11------|
E----------------------------------------------------------------------------|

2:29~2:33
first guitar
e----------------------------------------------------------------------------|
b----------------------------------------------------------------------------|
g-8-8-6-8-8-6-8-8-6-8--8-8/11-------11---------------------------------------|
d-8-8-6-8-8-6-8-8-6-8--8-8/11-------11----------11-11-11-11-11-11-11-11------|
a-6-6-4-6-6-4-6-6-4-6--6-6/9--------9-----------11-11-11-11-11-11-11-11------|
E-----------------------------------------------9--9--9--9--9--9--9--9-------|

2:33~-2:37
first guitar
e----------------------------------------------------------------------------|
b----------------------------------------------------------------------------|
g-8-8-6-8-8-6-8-8-6-8--8-8/11-------11-------13-13-13-13-13-13-13-13-13------|
d-8-8-6-8-8-6-8-8-6-8--8-8/11-------11-------13-13-13-13-13-13-13-13-13------|
a-6-6-4-6-6-4-6-6-4-6--6-6/9--------9--------11-11-11-11-11-11-11-11-11------|
E----------------------------------------------------------------------------|

2:37~2:42
first guitar
e----------------------------------------------------------------------------|
b----------------------------------------------------------------------------|
g-----------------------------8-8-8-8----------------------------------------|
d-9-9-x-x-x-6-6-6-6-9-9-x-x-x-8-8-8-8----------------------------------------|
a-9-9-x-x-x-6-6-6-6-9-9-x-x-x-6-6-6-6----------------------------------------|
E-7-7-x-x-x-4-4-4-4-7-7-x-x-x------------------------------------------------|

2:42~2:47
first guitar
e----------------------------------------------------------------------------|
b----------------------------------------------------------------------------|
g-----------------------------6----------------------------------------------|
d-9-9-x-x-x-6-6-6-6-9-9-x-x-x-6-(let ring)-----------------------------------|
a-9-9-x-x-x-6-6-6-6-9-9-x-x-x-4----------------------------------------------|
E-7-7-x-x-x-4-4-4-4-7-7-x-x-x------------------------------------------------|

outro
e-----11-11-----11-11-------11-11-------12-12-------12-12-------13-13--------|
b10b11-----10b11------10b11-------11b12--------11b12-------12b13------12b13--|
g----------------------------------------------------------------------------|
d----------------------------------------------------------------------------|
a----------------------------------------------------------------------------|
E----------------------------------------------------------------------------|

e-13-13------14-14------14-14--15-15-15-15-16-16-16-16-17-17-18-18-----------|
b-------13b14------13b14-------15-15-15-15-16-16-16-16-17-17-18-18-----------|
g----------------------------------------------------------------------------|
d----------------------------------------------------------------------------|
a----------------------------------------------------------------------------|
E----------------------------------------------------------------------------|

2:55
e----------------------------------------------------------------------------|
b----------------------------------------------------------------------------|
g-8/0------------------------------------------------------------------------|
d-8/0-(ring, volume down)----------------------------------------------------|
a-6/0------------------------------------------------------------------------|
E----------------------------------------------------------------------------|

            
            
Suggest correction
Creating personal tab
Creating personal tab
You can edit any tab online and save it as your Personal.

You can edit, replace or remove any tab part or add personal notes – all changes will be seen only by you.

Personal tabs can be accessed anytime from any device, even offline.
Learn more »
Give kudos to tab author, rate the tab!
1 2 3 4 5
comments
print report bad tab
1 comment total.
+1 reply
SirMagus 10 Apr 11, 2008 03:49 AM

Love this song! =D

And you did a good job tabbing it

guest
You may want to rate the tab now too:
select rating
Wanna post a correction for this tab? Suggest correction