Oops, an error
Loading. Please wait.

Stand Up Live Version bass

1 view 1 this week
no commentswrite comment
1 2 3 4 5
2 more votes to show rating
add to favorites
×
Save as Personal and add changes to this tab that will be seen only by you. Learn more ›
×
You can save this tab as Personal to edit and correct it or add notes. All changes will be seen only by you. Learn more »
launch autoscroll
font size
0
reset
guitar tuner
edit
Autoscroll
slow
fast
+/-
esc
set tempo
stop
Stand Up
First single release by Roman Holliday. Reached number 61 UK Chart 1983
And Number 1 in Canada. Bass performance Jon Durno. Tab by bass50611.
This is the live version recorded at The Magic Garden. Great Rock-a-Billy
Song. Not exact but close enough.

PLAY AS A FAST WALKING BASS

Intro.  (Play Intro x2)
G|-------------------------------------------------------------------|
D|------------------------------------2--3--4--5--3--2----5--3--2--1-|
A|-5--3--2----5--3--2----5--3--2----5------------------5-------------|
E|---------5----------5----------5-----------------------------------|

G|--------------------------------------------------------------------|
D|------------------------7--5--4----5--3--2--1-----------------------|
A|-5--3--2----5--3--2-------------7--------------5--3--2----5--3--2---|
E|---------5----------5----------------------------------5----------5-|

Verse 1:
G|------------------------------------------------------------------|
D|------------------------------------------------------------------|
A|-5--3--2----5--3--2----3--1--0----3--1--0----5--3--2----5--3--2---|
E|---------5----------5----------3----------3----------5----------5-|

G|---------------------------------------------------------------------|
D|---------------------------6--5--------6--5-------5--4--------5--4---|
A|-3--1--0----3--1--0-------------8-----------8----------7-----------7-|
E|---------3----------3---6-----------6-----------5----------5---------|

Verse 2:
G|------------------------------------------------------------------|
D|------------------------------------------------------------------|
A|-5--3--2----5--3--2----3--1--0----3--1--0----5--3--2----5--3--2---|
E|---------5----------5----------3----------3----------5----------5-|

G|----------------------------------------------------------------------|
D|---------------------------6--5--------6--5-------5--4-----5--3--2--1-|
A|-3--1--0----3--1--0-------------8-----------8----------7--------------|
E|---------3----------3---6-----------6-----------5---------------------|

Chorus 1:
G|-------------------------------------------------------------------|
D|------------------------------------2--3--4--5--3--2----5--3--2--1-|
A|-5--3--2----5--3--2----5--3--2----5------------------5-------------|
E|---------5----------5----------5-----------------------------------|

                     ‘.’     ‘.’     ‘.’   (Break)
G|-----------------------------------------------|
D|--------------------------7-7-----5-5----------|
A|-5--3--2----5--3--2-----------------------5----|
E|---------5----------5--------------------------|

Interlude 1:
G|-------------------------------------------------------------------|
D|------------------------------------2--3--4--5--3--2----5--3--2--1-|
A|-5--3--2----5--3--2----5--3--2----5------------------5-------------|
E|---------5----------5----------5-----------------------------------|

G|--------------------------------------------------------------------|
D|------------------------7--5--4----5--3--2--1-----------------------|
A|-5--3--2----5--3--2-------------7--------------5--3--2----5--3--2---|
E|---------5----------5----------------------------------5----------5-|

Verse 2:
G|------------------------------------------------------------------|
D|------------------------------------------------------------------|
A|-5--3--2----5--3--2----3--1--0----3--1--0----5--3--2----5--3--2---|
E|---------5----------5----------3----------3----------5----------5-|

G|---------------------------------------------------------------------|
D|---------------------------6--5--------6--5-------5--4----5--3--2--1-|
A|-3--1--0----3--1--0-------------8-----------8----------7-------------|
E|---------3----------3---6-----------6-----------5--------------------|

Chorus 2:
G|-------------------------------------------------------------------|
D|------------------------------------2--3--4--5--3--2----5--3--2--1-|
A|-5--3--2----5--3--2----5--3--2----5------------------5-------------|
E|---------5----------5----------5-----------------------------------|

                     ‘.’     ‘.’     ‘.’   (Break)
G|-----------------------------------------------|
D|--------------------------7-7-----5-5----------|
A|-5--3--2----5--3--2-----------------------5----|
E|---------5----------5--------------------------|

Interlude 2:
G|-------------------------------------------------------------------|
D|------------------------------------2--3--4--5--3--2----5--3--2--1-|
A|-5--3--2----5--3--2----5--3--2----5------------------5-------------|
E|---------5----------5----------5-----------------------------------|

G|--------------------------------------------------------------------|
D|------------------------7--5--4----5--3--2--1-----------------------|
A|-5--3--2----5--3--2-------------7--------------5--3--2----5--3--2---|
E|---------5----------5----------------------------------5----------5-|

G|-----------------------------------------------------------------------|
D|------------------------------------2--3--4--5--3--2-------------------|
A|-5--3--2----5--3--2----5--3--2----5------------------5-----2--3--4-----|
E|---------5----------5----------5-------------------------3-------------|

G|--------------------------------------------------------------------|
D|------------------------7--5--4----5--3--2--1-----------------------|
A|-5--3--2----5--3--2-------------7--------------5--3--2----5--3--2---|
E|---------5----------5----------------------------------5----------5-|

G|-----------------------------------------------------------------------|
D|------------------------------------2--3--4--5--3--2----5--------------|
A|-5--3--2----5--3--2----5--3--2----5------------------5-----2--3--4-----|
E|---------5----------5----------5---------------------------------------|

                                                                    (Break)
G|------------------------------------------------------------------------|
D|------------------------7--5--4----5--3--2--1---------------------------|
A|-5--3--2----5--3--2-------------7--------------5--3--2----5--3--2-----5-|
E|---------5----------5----------------------------------5----------5-----|

Chorus 3:   (No Bass)

Chorus 4:   (No Bass)

Chorus 5:
G|-------------------------------------------------------------------|
D|------------------------------------2--3--4--5--3--2----5--3--2--1-|
A|-5--3--2----5--3--2----5--3--2----5------------------5-------------|
E|---------5----------5----------5-----------------------------------|

                     ‘.’     ‘.’     ‘.’  
G|--------------------------------------------------|
D|--------------------------7-7-----5-5--------5----|
A|-5--3--2----5--3--2-----------------------5-----5-|
E|---------5----------5-----------------------------|

Outro:    (Play Quavers)
G|-----------------------------------------------------|
D|-----------------------------------------------------|
A|-5-5-5-5-5-5-5-5---5-5-5-5-5-5-5-5---5-5-5-5-5-5-5-5-|
E|-----------------------------------------------------|

                      (End)
G|-----------------------|
D|-----------------------|
A|-5-5-5-5-5-5-5-5-----5-|
E|-----------------------|


Suggest correction
Creating personal tab
Creating personal tab
You can edit any tab online and save it as your Personal.

You can edit, replace or remove any tab part or add personal notes – all changes will be seen only by you.

Personal tabs can be accessed anytime from any device, even offline.
Learn more »
Give kudos to tab author, rate the tab!
1 2 3 4 5
comments
print report bad tab
guest
You may want to rate the tab now too:
select rating
Wanna post a correction for this tab? Suggest correction