Oops, an error
Loading. Please wait.

Romance Damour Tab

version 1
version 1

Whole song

Interactive

177,604 views 108 this week
1 commentread comment
1 2 3 4 5
excellent!
x 47
add to favorites
launch autoscroll
font size
0
reset
how to read this tab
guitar tuner
Autoscroll
slow
fast
+/-
esc
set tempo
stop
Help us to improve Ultimate-Guitar.com Take our survey!
×
#----------------------------------PLEASE NOTE---------------------------------#
#This file is the author's own work and represents their interpretation of the #
#song. You may only use this file for private study, scholarship, or research. #
#------------------------------------------------------------------------------##
 <92Apr11.005411adt.4498@ug.cs.dal.ca>

Here is the TAB for a beautiful spanish melody called Romance D'amour.  So if you
are sitting next to a woman you love, then tray to play this song for her.
It is not difficult to play it, so start practising now.


x/yB=Barre


[A]

e|-7--7--7--|7--5--3--|3--2--0--|0--3--7--|12--12--12--|12--10--8---|| 
B|--0--0--0-|-0--0--0-|-0--0--0-|-0--0--0-|- 0-- 0-- 0-|- 0-- 0--0--|| 
G|---0--0--0|--0--0--0|--0--0--0|--0--0--0|- -0- -0- -0|- -0- -0--0-|| 
D|----------|---------|---------|---------|------------|------------|| 
A|----------|---------|---------|---------|------------|------------|| 
E|-0--------|0--------|0--------|0--------|0-----------|0 --- ------|| 

4/6B                6/6B

e|-8--7--5--|5--7--8--|7--8--7--|11--8--7--|7--5--3--|3--2--0--|
B|--5--5--5-|-5--5--5-|-7--7--7-|- 7--7--7-|-0--0--0-|-0--0--0-|
G|---5--5--5|--5--5--5|--8--8--8|- -8--8--8|--0--0--0|--0--0--0|
D|----------|---------|---------|- --------|---------|---------|
A|-0--------|0--------|---------|- --------|---------|---------|
E|----------|---------|7--------|7 --------|0--------|0-----3--|


                         ___________________  __________________
                         1.   B             ||2. C               |

e|-2--2--2--|2--3--2--|-0--------|--------- ||-0--------|--------|
B|--1--1--1-|-0--0--0-|--0--0--0-|-0--0--0-*||--0--0--0-|-0---0--|
G|---2--2--2|--2--2--2|---0--0--0|--0--0--0 ||---0--0--0|--0-----|
D|----------|------1--|-2--------|--------- ||-2--------|--------|
A|-0--------|2--------|----2-----|--2------*||----2-----|---2----|
E|----------|---------|-------3--|0-----3-- ||-------3--|0-------|


[D]                                                6/6B

e|-4--4--4--|4--2--0--|---------|-------2-|9--9--9--|9--11--9--|
B|--0--0--0-|-0--0--0-|5--4--4--|4--3--4-0|-7--7--7-|-7-- 7--7-|
G|---1--1--1|--1--1--1|-2--2--2-|-2--2----|--8--8--8|--8- -8--8|
D|----------|---------|--4--4--4|--4--4---|---------|----------|
A|----------|---------|0--------|2--------|------9--|----------|
E|-0--------|0--------|---------|---------|---------|7---------|

e|-9--7--7--|7--9--11--|12--12--12--|12--11--10--|9--9--9--|9--7--5--|
B|--9--9--9-|-9--9-- 9-|- 9-- 9-- 9-|- 9-- 9-- 9-|-5--5--5-|-5--5--5-|
G|---9--9--9|--9--9- -9|- -9- -9- -9|- -9- -9- -9|--6--6--6|--6--6--6|
D|----------|----------|------------|------------|---------|---------|
A|----------|----------|------------|------------|0--------|0--------|
E|-0--------|0---------|0-----------|0-----------|---------|---------|


                    ___________________        ______________________
                    |1.    E           |      |2.    F               |

e|-4--4--4--|4--5--2--|0--------|----------0-2||0--------|-------------|
B|--0--0--0-|-4--4--4-|-0--0--0-|-0--0-2-4----||-0--0--0-|-0--0-2-4-2-0|
G|---1--1--1|--2--2--2|--0--0--0|--0----------||--0--0--0|--0----------|
D|----------|---------|---------|-------------||---------|-------------|
A|-2--------|2--------|---2-----|---2---------||---2-----|---2---------|
E|----------|---------|0-----3--|0------------||0-----3--|0------------|


[G]

e|-2--2--2--|2--3--2--|0--0--0--|0--2--0--|0--------|---------|
B|--0--0--0-|-0--0--0-|-1--1--1-|-1--1--1-|-0--0--0-|-0--0--0-|
G|---2--2--2|--2--2--2|--0--0--0|--2--2--2|--0--0--0|--0--0--0|
D|----------|1--------|---------|---------|---------|---------|
A|-0-----2--|------2--|3-----2--|0--------|---2-----|---2-----|
E|----------|---------|---------|---------|0-----3--|0-----3--|


e|----------|---0----12---||   Touch the last three "12||'s easy, so you
B|----------|--0---12----------------------------------||   only get the harmonies.
G|----------|-0--12------------------------------------||
D|----------|2-----------------------------------------||   The melody starts at A and then you play
A|-------2--|------------------------------------------||   BACDEAFG.
E|-0--------|------------------------------------------||

Good luck!

John
Suggest correction
What's this?
You can suggest a correction to this tab. Community and Mods will review your correction and vote to approve or reject it.
comments
print report bad tab
1 comment total.
0 reply
uFFr 11 wrote on November 6 2008, 11:41 pm

nice job, loving it.

guest
You may want to rate the tab now too:
select rating
Please do not post tabs as comments. Select "correction" instead!