Oops, an error
Loading. Please wait.

Shes Got Everything Chords

7 views 3 this week
no commentswrite comment
1 2 3 4 5
3 more votes to show rating
add to favorites
launch autoscroll
font size
0
reset
transpose
0
reset
display chords
guitar tuner
Autoscroll
slow
fast
+/-
esc
set tempo
stop
Help us to improve Ultimate-Guitar.com Take our survey!
×
Author
Difficulty
intermediate
[Intro]
    G   G C   F F  F G      G   G C   F F  F F G
e|----------------------|----------------------------|
B|----------------------|----------------------------|
G|----------------------|----------------------------|
D|--------5-------------|--------5-------------------|
A|--5---5-3---3-3--3-5--|--5---5-3---3-3--3-3/5------|
E|--3---3-----1-1--1-3--|--3---3-----1-1--1-1/3------|

[Verse 1]
N.C.
Well, I’ve got a girl who's oh-so good,
G           C         F         G
She's got everything.
G           C         F         G
And I've got a girl she’s oh-so fine,
G           C         F         G
She's got everything.

[Chorus 1]
         Bb                   F
She’s got  pretty ringlets in her hair,
Bb                   A       D
Pretty clothes that she can wear.
         A      D                                       
And what she’s got, 
          A       D     A       D       D C D
She’s got everything,   Everything.

[Verse 2]
G         C         F         G
All other guys just stand and stare,
G         C         F         G
She's got everything.                           doot, doo-doo, doot-doo doo-doo
G         C         F         G
Ah well, I ain't got a dime but she don't care,
G         C         F         G
She’s got everything.                           doot, doo-doo, doot-doo doo-doo

[Chorus 2]
Bb                   F
I don't need money because I've got,
Bb                    A         D
All the things that she could want.
      A     D           A       D     A       D      D C D
And what I got,   I got everything.   Everything.

[Verse 3]
G          C          F       G
I've got a girl who's oh-so good,
G         C         F         G
She's got everything.                           doot, doo-doo, doot-doo doo-doo
G         C         F         G
She's got everything.                           doot, doo-doo, doot-doo doo-doo
G         C         F         G
She's got everything.                           doot, doo-doo, doot-doo doo-doo
G         C         F         G
Oh, no

[Solo] 
Over ( G -- C -- F -- G )  (x4)
e|-------------------------------------------------|
B|--------8~---8-6-5-------------------------------|
G|----7~-------------7-----------------------------|
D|--5------------------8-5-------------------------|
A|-------------------------------------------------|
E|-------------------------------------------------|

e|--------------15---15--13------------------------|
B|--------15-15--------------15-14-13----13--------|
G|--10/12-----------------------------15----15-12--|
D|-------------------------------------------------|
A|-------------------------------------------------|
E|-------------------------------------------------|

     (quarter bends) 
e|-------------------------------------------------|
B|-----17b--17b------------------------------------|
G|--15-17b--17b---19-18-17-15-------15-------------|
D|----------------------------17-15----15-17-------|
A|-------------------------------------------------|
E|-------------------------------------------------|
    
e|-----------------------15b17rb15-----------------|
B|-------------------------------------------------|
G|--15-17-15-------15------------------------------|
D|-----------17-15----17---------------------------|
A|-------------------------------------------------|
E|-------------------------------------------------|

[Chorus] (x2)
Bb                 F
I don't need money because I have got,
Bb                    A         D
All the things that she could want.
     A      D          A       D     A       D      D C D
And what I got, I got everything,   Everything.

[Breakdown]
G         C         F         G
We’ll I can’t live without her love.
G         C         F         G
I can’t live without her kiss.
G         C         F         G
She is mine forever now,
G         C         F         G
She’s got everything.
G         C         F         G
She’s got everything.
G         C         F         G
She’s got everything.
G         C         F         G
SHE GOT...EVERYTHING!

[Verse 4]
N.C.
I’ve got a girl who's oh-so good,
G         C         F         G
She's got everything.                           doot, doo-doo, doot-doo doo-doo
G         C         F         G
And I've got a girl who’s oh-so fine,           doot, doo-doo, doot-doo doo-doo
G         C         F         G
She's got everything.                           doot, doo-doo, doot-doo doo-doo
G         C         F         G
She's got everything.                                          doot-doo doo-doo
G         C         F         G
Oh, yeah, everything.                                          doot-doo doo-doo
G         C         F         G
Aw, do it!


************************************

| /  Slide up
| ~  Vibrato
| b  Bend

************************************
Suggest correction
Give kudos to tab author, rate the tab!
1 2 3 4 5
comments
print report bad tab
guest
You may want to rate the tab now too:
select rating
Wanna post a correction for this tab? Suggest correction