Oops, an error
Loading. Please wait.

Talking In Your Sleep Tab

version 2
version 2

Whole song

Interactive

35,325 views 66 this week
no commentswrite comment
1 2 3 4 5
1 last vote to show rating
add to favorites
launch autoscroll
font size
0
reset
how to read this tab
guitar tuner
Autoscroll
slow
fast
+/-
esc
set tempo
stop
Difficulty
intermediate
Talking In Your Sleep
The Romantics
Standard Tuning
Three dashes = 1/8 note
I've tabbed this song with three guitar parts:
Guitar 1 -- Clean, thin telecaster-like sound
Guitar 2 -- Clean, thin telecaster-like sound
Guitar 3 -- Clean but fuller sound with Chorus effect
For the intro, there are definitely three guitars. 

[INTRO]
(guitars 1 and 2)
(play 2x)
  Dm                       Dm            
e|------10----10----------|------10----10----------|  \
B|------10----10----------|------10----10----------|   guitar 1
G|------10----10----------|------10----10----------|  /
D|------------------------|------------------------|  \
A|5--------------0--3--5--|------------------------|   guitar 2
E|------------------------|------------------0--1--|  /

  G           C             Dm            
e|---12-12-------8--8-----|------10----10----------|  \
B|---12-12-------8--8-----|------10----10----------|   guitar 1
G|---12-12-------9--9-----|------10----10----------|  /
D|------------------------|------------------------|  \
A|---------5--3--------7--|5--------------0--3--5--|   guitar 2
E|3-----------------------|------------------------|  /

[guitar 3 enters]
(guitar 1 and 2 continue)
  Dm                       Dm            
e|------10----10----------|------10----10----------|  \
B|------10----10----------|------10----10----------|   guitar 1
G|------10----10----------|------10----10----------|  /
D|------------------------|------------------------|  \
A|---------------0--3--5--|------------------------|   guitar 2
E|------------------------|------------------0--1--|  /

e|------------------------|------------------------|  
B|5--5--5--6--6--6--6--6--|5--5--5--6--6--6--6--6--|  \  
G|5--5--5--7--7--7--7--7--|5--5--5--7--7--7--7--7--|   guitar 3
D|5--5--5--7--7--7--7--7--|5--5--5--7--7--7--7--7--|  /
A|------------------------|------------------------| 
E|------------------------|------------------------| 

  G           C             Dm            
e|---12-12-------8--8-----|------10----10----------|  \
B|---12-12-------8--8-----|------10----10----------|   guitar 1
G|---12-12-------9--9-----|------10----10----------|  /
D|------------------------|------------------------|  \
A|---------5--3--------7--|5--------------0--3--5--|   guitar 2
E|3-----------------------|------------------------|  /

e|------------------------|------------------------|  
B|8--8--8--5--5--5--5--5--|5--5--5--6--6--6--6--6--|  \  
G|7--7--7--5--5--5--5--5--|5--5--5--7--7--7--7--7--|   guitar 3
D|5--5--5--5--5--5--5--5--|5--5--5--7--7--7--7--7--|  /
A|------------------------|------------------------| 
E|------------------------|------------------------| 

[VERSE1]
(When you close your eyes and go to sleep)
  N.C.                      N.C.            
e|------------------------|------------------------|  \
B|------------------------|------------------------|   guitar 1
G|------------------------|------------------------|  /
D|------------------------|------------------------|  \
A|---------------0--3--5--|------------------------|   guitar 2
E|------------------------|------------------0--1--|  /

  G           C             Dm            
e|---12-12-------8--8-----|------10----10----------|  
B|---12-12-------8--8-----|------10----10----------|  
G|---12-12-------9--9-----|------10----10----------|  
D|------------------------|------------------------|  \
A|---------5--3--------7--|5--------------0--3--5--|   guitar 2
E|3-----------------------|------------------------|  /

(guitars continue with the same four bars over lyrics below
"And it's down to the sound of a heartbeat"
"I can here the things that you're dreaming about"
"When you open up your heart and the truth comes out")

[PRE-CHORUS]
("You tell me that you want me")
  Dm
e|---------10-------------|------------------------|  - guitar 3 (let ring)
B|------10----------------|------------------------|  \
G|---10-------------------|------------------------|   guitar 1 (let ring)
D|12----------------------|------------------------|  /
A|5--5--5--5--5--5--5--5--|5--5--5--5--5--5--5--5--|  - guitar 2 (palm mute)
E|------------------------|------------------------|  

("You tell me that you need me")
  C
e|---------10-------------|------------------------|  - guitar 3 (let ring)
B|------8-----------------|------------------------|  \
G|---9--------------------|------------------------|   guitar 1 (let ring)
D|10----------------------|------------------------|  /
A|3--3--3--3--3--3--3--3--|3--3--3--3--3--3--3--3--|  - guitar 2 (palm mute)
E|------------------------|------------------------|  

("You tell me that you love")
  G
e|---------10-------------|---------10-------------|  - guitar 3 (let ring)
B|------3-----------------|------3-----------------|  \
G|---4--------------------|---4--------------------|   guitar 1 (let ring)
D|5-----------------------|5-----------------------|  /
A|------------------------|------------------------|  
E|3--3--3--3--3--3--3--3--|3--3--3--3--3--3--3--3--|  - guitar 2 (palm mute)

("And I know that I'm right 'cause I hear it in the night")
  Bb                       C
e|---------10-------------|---------12-------------|  - guitar 3 (let ring)
B|------6-----------------|------8-----------------|  \
G|---7--------------------|---9--------------------|   - guitar 1 (let ring)
D|8-----------------------|10----------------------|  /
A|1--1--1--1--1--1--1--1--|3--3--3--3--3--3--3--3--|  - guitar 2 (palm mute)
E|------------------------|------------------------|  

[CHORUS]
( play all three guitar parts from the INTRO section )
"I hear the secrets that you keep"
"When you're talking in your sleep"
"I hear the secrets that you keep"
"When you're talking in your sleep"

[VERSE2]
(guitars same as verse 1)
"When I hold you in my arms at night"
"Don't you know you're sleeping the spotlight"
"And all the dreams that you keep inside"
"You're telling me the secrets that you just can't hide"

[PRE-CHORUS]
("You tell me that you want me")
  Dm
e|---------10-------------|------------------------|  - guitar 3 (let ring)
B|------10----------------|------------------------|  \
G|---10-------------------|------------------------|   guitar 1 (let ring)
D|12----------------------|------------------------|  /
A|5--5--5--5--5--5--5--5--|5--5--5--5--5--5--5--5--|  - guitar 2 (palm mute)
E|------------------------|------------------------|  

("You tell me that you need me")
  C
e|---------10-------------|------------------------|  - guitar 3 (let ring)
B|------8-----------------|------------------------|  \
G|---9--------------------|------------------------|   guitar 1 (let ring)
D|10----------------------|------------------------|  /
A|3--3--3--3--3--3--3--3--|3--3--3--3--3--3--3--3--|  - guitar 2 (palm mute)
E|------------------------|------------------------|  

("You tell me that you love")
  G
e|---------10-------------|---------10-------------|  - guitar 3 (let ring)
B|------3-----------------|------3-----------------|  \
G|---4--------------------|---4--------------------|   guitar 1 (let ring)
D|5-----------------------|5-----------------------|  /
A|------------------------|------------------------|  
E|3--3--3--3--3--3--3--3--|3--3--3--3--3--3--3--3--|  - guitar 2 (palm mute)

("And I know that I'm right 'cause I hear it in the night")
  Bb                       C
e|---------10-------------|---------12-------------|  - guitar 3 (let ring)
B|------6-----------------|------8-----------------|  \
G|---7--------------------|---9--------------------|   - guitar 1 (let ring)
D|8-----------------------|10----------------------|  /
A|1--1--1--1--1--1--1--1--|3--3--3--3--3--3--3--3--|  - guitar 2 (palm mute)
E|------------------------|------------------------|  

[CHORUS]
( play all three guitar parts from the INTRO section )
"I hear the secrets that you keep"
"When you're talking in your sleep"
"I hear the secrets that you keep"
"When you're talking in your sleep" x2

[VERSE3]
(guitars same as verse 1)
(verse is half the length of verses1 and 2)
"When you close your eyes and you fall asleep"
"Everything about you is a mystery"

[PRE-CHORUS]
("You tell me that you want me")
  Dm
e|---------10-------------|------------------------|  - guitar 3 (let ring)
B|------10----------------|------------------------|  \
G|---10-------------------|------------------------|   guitar 1 (let ring)
D|12----------------------|------------------------|  /
A|5--5--5--5--5--5--5--5--|5--5--5--5--5--5--5--5--|  - guitar 2 (palm mute)
E|------------------------|------------------------|  

("You tell me that you need me")
  C
e|---------10-------------|------------------------|  - guitar 3 (let ring)
B|------8-----------------|------------------------|  \
G|---9--------------------|------------------------|   guitar 1 (let ring)
D|10----------------------|------------------------|  /
A|3--3--3--3--3--3--3--3--|3--3--3--3--3--3--3--3--|  - guitar 2 (palm mute)
E|------------------------|------------------------|  

("You tell me that you love")
  G
e|---------10-------------|---------10-------------|  - guitar 3 (let ring)
B|------3-----------------|------3-----------------|  \
G|---4--------------------|---4--------------------|   guitar 1 (let ring)
D|5-----------------------|5-----------------------|  /
A|------------------------|------------------------|  
E|3--3--3--3--3--3--3--3--|3--3--3--3--3--3--3--3--|  - guitar 2 (palm mute)

("And I know that I'm right 'cause I hear it in the night")
  Bb                       C
e|---------10-------------|---------12-------------|  - guitar 3 (let ring)
B|------6-----------------|------8-----------------|  \
G|---7--------------------|---9--------------------|   - guitar 1 (let ring)
D|8-----------------------|10----------------------|  /
A|1--1--1--1--1--1--1--1--|3--3--3--3--3--3--3--3--|  - guitar 2 (palm mute)
E|------------------------|------------------------|  

[CHORUS]
( play all three guitar parts from the INTRO section )
"I hear the secrets that you keep"
"When you're talking in your sleep"
"I hear the secrets that you keep"
"When you're talking in your sleep"

(Here's a tab of the song for single guitar (this is what I play when I 
perform it).

[INTRO PART 1]
  Dm                       Dm            
e|------5-----5-----------|------5-----5-----------|  
B|------6-----6-----------|------6-----6-----------|  
G|------7-----7-----------|------7-----7-----------|  
D|------------------------|------------------------|  
A|5--------------0--3--5--|------------------------|  
E|------------------------|------------------0--1--|  

  G           C             Dm            
e|---3--3-----------------|------5-----5-----------|  
B|---3--3--------5--5-----|------6-----6-----------|  
G|---3--3--------5--5-----|------7-----7-----------|  
D|------------------------|------------------------|  
A|---------5--3--------7--|5--------------0--3--5--|  
E|3-----------------------|------------------------|  
(repeat above four bars 2x)

[INTRO PART 2]
e|------------------------|------------------------|  
B|5--5--5--6--6--6--6--6--|5--5--5--6--6--6--6--6--|    
G|5--5--5--7--7--7--7--7--|5--5--5--7--7--7--7--7--|  
D|5--5--5--7--7--7--7--7--|5--5--5--7--7--7--7--7--|  
A|------------------------|------------------------| 
E|------------------------|------------------------| 

e|------------------------|------------------------|  
B|8--8--8--5--5--5--5--5--|5--5--5--6--6--6--6--6--|    
G|7--7--7--5--5--5--5--5--|5--5--5--7--7--7--7--7--|  
D|5--5--5--5--5--5--5--5--|5--5--5--7--7--7--7--7--|  
A|------------------------|------------------------| 
E|------------------------|------------------------| 
(repeat above four bars 2x)

[VERSE]
(When you close your eyes and go to sleep)
  N.C.                      N.C.            
e|------------------------|------------------------|  
B|------------------------|------------------------|  
G|------------------------|------------------------|  
D|------------------------|------------------------|  
A|---------------0--3--5--|------------------------|  
E|------------------------|------------------0--1--|  

  G           C             Dm            
e|---3--3-----------------|------5-----5-----------|  
B|---3--3--------5--5-----|------6-----6-----------|  
G|---0--0--------5--5-----|------7-----7-----------|  
D|------------------------|------------------------|  
A|---------5--3--------7--|5--------------0--3--5--|  
E|3-----------------------|------------------------|  

[PRECHORUS]
("You tell me that you want me")
  Dm
e|---------5--------------|------------------------|  
B|------6-----------------|------------------------|  
G|---7--------------------|------------------------|  
D|7-----------------------|------------------------|  
A|5-----------5--5--5--5--|5--5--5--5--5--5--5--5--|  
E|------------------------|------------------------|  

  "You tell me that you need me"
  C
e|---------5--------------|------------------------|  
B|------5-----------------|------------------------|  
G|---5--------------------|------------------------|  
D|5-----------------------|------------------------|  
A|------------3--3--3--3--|3--3--3--3--3--3--3--3--|  
E|------------------------|------------------------|  

  "You tell me that you love"
  G
e|---------5--------------|---------5--------------|  
B|------3-----------------|------3-----------------|  
G|---0--------------------|---0--------------------|  
D|0-----------------------|0-----------------------|  
A|------------------------|------------------------|  
E|------------3--3--3--3--|------------3--3--3--3--|  

  "And I know that I'm right 'cause I hear it in the night"
  Bb                       C
e|---------5--------------|---------5--------------|  
B|------3-----------------|------5-----------------|  
G|---3--------------------|---5--------------------|  
D|3-----------------------|5-----------------------|  
A|------------1--1--1--1--|------------3--3--3--3--|  
E|------------------------|------------------------|  

[CHORUS]
( play all three guitar parts from the INTRO section )
"I hear the secrets that you keep"
"When you're talking in your sleep"
"I hear the secrets that you keep"
"When you're talking in your sleep"
Suggest correction
Give kudos to tab author, rate the tab!
1 2 3 4 5
comments
print report bad tab
guest
You may want to rate the tab now too:
select rating
Wanna post a correction for this tab? Suggest correction