Oops, an error
Loading. Please wait.

Out On My Own bass

106 views 1 this week
no commentswrite comment
1 2 3 4 5
3 more votes to show rating
add to favorites
×
Save as Personal and add changes to this tab that will be seen only by you. Learn more ›
×
You can save this tab as Personal to edit and correct it or add notes. All changes will be seen only by you. Learn more »
launch autoscroll
font size
0
reset
guitar tuner
edit
Autoscroll
slow
fast
+/-
esc
set tempo
stop
Author
Difficulty
-------------------------------------------------------------------------------
                           Out on My Own - Romeo Void
-------------------------------------------------------------------------------

Tabbed by: TBone142
e-mail: tbone142@freemail.hu

Tuning: standard EADG

Intro:

                                     Q    Q    E  E  E  E     Q    Q    E  E  E  E   
G||-------|-------|-------|-------|------------------------|------------------------|
D||-------|-------|-------|-------|------------------------|------------------------|
A||-------|-------|-------|-------|-------7----5-----------|-------5----------------|
E||-------|-------|-------|-------|--0------------8--5--7--|--8---------8--7--5--7--|

   Q    Q    E  E  E  E    Q    Q    E  E  E  E    Q    Q    E  E  E  E    Q    Q    E  E  E  E  
G|-----------------------|-----------------------|-----------------------|----------------------|
D|-----------------------|--------------5--------|-----------------------|----------------------|
A|------7----5-----------|------5----7-----7--5--|------7----5-----------|------5---------------|
E|-0------------8--5--7--|-8---------------------|-0------------8--5--7--|-8---------8--7--5--7-|

    Q    Q    E  E  E  E     Q    Q    Q    Q     
G|------------------------|----------------------|
D|------------------------|-----------------5----|
A|-------7----5-----------|-------5----7---------|
E|--0------------8--5--7--|--8-------------------|

Verse:

    Q    Q    E  E  E  E     Q    Q    E  E  E  E   
G|------------------------|------------------------|
D|------------------------|------------------------|
A|-------7----5-----------|-------5----------------|
E|--0------------8--5--7--|--8---------8--7--5--7--|

    Q    Q    E  E  E  E     Q    Q       Q    Q    Q    E  Q    E  Q    Q    Q     
G|------------------------|------------|-------------------------------------------|
D|------------------------|------------|-------5----4----5----------5----4----5----|
A|-------7----5-----------|-------5----|--3-----------------3----3-----------------|
E|--0------------8--5--7--|--8---------|-------------------------------------------|

    Q    Q    E  E  E  E     Q    Q    E  E  E  E     Q    Q    E  E  E  E     Q    Q    Q    Q     
G|------------------------|------------------------|------------------------|----------------------|
D|------------------------|------------------------|------------------------|-----------------5----|
A|-------7----5-----------|-------5----------------|-------7----5-----------|-------5----7---------|
E|--0------------8--5--7--|--8---------8--7--5--7--|--0------------8--5--7--|--8-------------------|

    Q    Q    Q    E  Q    E  Q    Q    Q       Q    Q    Q    E  Q    E  Q    Q    Q     
G|-------7----6----7----------6----7----6----|-------6----7----6--7----7--6----4---------|
D|--4-----------------4----4-----------------|--4-----------------------------------7----|
A|-------------------------------------------|-------------------------------------------|
E|-------------------------------------------|-------------------------------------------|

Bridge:

   Q    Q    E  E  E  E    Q    Q    E  E  E  E    Q    Q    E  E  E  E    Q    Q    E  E  E  E  
G|-----------------------|-----------------------|-----------------------|----------------------|
D|-----------------------|-----------------------|-----------------------|--------------5-------|
A|------7----5-----------|------5----------------|------7----5-----------|------5----7-----7--5-|
E|-0------------8--5--7--|-8---------8--7--5--7--|-0------------8--5--7--|-8--------------------|

Verse:

    Q    Q    E  E  E  E     Q    Q    E  E  E  E     Q    Q    E  E  E  E     Q    Q     
G|------------------------|------------------------|------------------------|------------|
D|------------------------|------------------------|------------------------|------------|
A|-------7----5-----------|-------5----------------|-------7----5-----------|-------5----|
E|--0------------8--5--7--|--8---------8--7--5--7--|--0------------8--5--7--|--8---------|

    Q    Q    Q    E  Q    E  Q    Q    Q     
G|-------------------------------------------|
D|-------5----4----5----------5----4----5----|
A|--3-----------------3----3-----------------|
E|-------------------------------------------|

    Q    Q    E  E  E  E     Q    Q    E  E  E  E     Q    Q    E  E  E  E     Q    Q    Q    Q     
G|------------------------|------------------------|------------------------|----------------------|
D|------------------------|------------------------|------------------------|-----------------5----|
A|-------7----5-----------|-------5----------------|-------7----5-----------|-------5----7---------|
E|--0------------8--5--7--|--8---------8--7--5--7--|--0------------8--5--7--|--8-------------------|

    Q    Q    Q    E  Q    E  Q    Q    Q       Q    Q    Q    E  Q    E  Q    Q    Q     
G|-------7----6----7----------6----7----6----|-------6----7----6--7----7--6----4---------|
D|--4-----------------4----4-----------------|--4-----------------------------------7----|
A|-------------------------------------------|-------------------------------------------|
E|-------------------------------------------|-------------------------------------------|

Bridge:

    Q    Q    E  E  E  E     Q    Q    E  E  E  E     Q    Q    E  E  E  E     Q    Q    Q    Q     
G|------------------------|------------------------|------------------------|----------------------|
D|------------------------|------------------------|------------------------|-----------------5----|
A|-------7----5-----------|-------5----------------|-------7----5-----------|-------5----7---------|
E|--0------------8--5--7--|--8---------8--7--5--7--|--0------------8--5--7--|--8-------------------|

Chorus:

    Q    Q    E  E  E  E     Q    Q    E  E  E  E 
G|------------------------|------------------------|
D|------------------------|------------------------|
A|-------7----5-----------|-------5----------------|x4
E|--0------------8--5--7--|--8---------8--7--5--7--|

Verse:

   Q    Q    E  E  E  E    Q    Q    E  E  E  E    Q    Q    E  E  E  E    Q    Q    E  E  E  E  
G|-----------------------|-----------------------|-----------------------|----------------------|
D|-----------------------|--------------5--------|-----------------------|----------------------|
A|------7----5-----------|------5----7-----7--5--|------7----5-----------|------5---------------|
E|-0------------8--5--7--|-8---------------------|-0------------8--5--7--|-8---------8--7--5--7-|

    Q    Q    E  E  E  E     Q    Q       Q    Q    Q    E  Q    E  Q    Q    Q     
G|------------------------|------------|-------------------------------------------|
D|------------------------|------------|-------5----4----5----------5----4----5----|
A|-------7----5-----------|-------5----|--3-----------------3----3-----------------|
E|--0------------8--5--7--|--8---------|-------------------------------------------|

    Q    Q    E  E  E  E     Q    Q    E  E  E  E     Q    Q    E  E  E  E     Q    Q    Q    Q  
G|------------------------|------------------------|------------------------|-------------------|
D|------------------------|------------------------|------------------------|-----------------5-|
A|-------7----5-----------|-------5----------------|-------7----5-----------|-------5----7------|
E|--0------------8--5--7--|--8---------8--7--5--7--|--0------------8--5--7--|--8----------------|

    Q    Q    Q    E  Q    E  Q    Q    Q       Q    Q    Q    E  Q    E  Q    Q    Q     
G|-------7----6----7----------6----7----6----|-------6----7----6--7----7--6----4---------|
D|--4-----------------4----4-----------------|--4-----------------------------------7----|
A|-------------------------------------------|-------------------------------------------|
E|-------------------------------------------|-------------------------------------------|

Bridge:

    Q    Q    E  E  E  E     Q    Q    E  E  E  E     Q    Q    E  E  E  E     Q    Q    Q    Q  
G|------------------------|------------------------|------------------------|-------------------|
D|------------------------|------------------------|------------------------|-----------------5-|
A|-------7----5-----------|-------5----------------|-------7----5-----------|-------5----7------|
E|--0------------8--5--7--|--8---------8--7--5--7--|--0------------8--5--7--|--8----------------|

Chorus:

    Q    Q    E  E  E  E     Q    Q    E  E  E  E 
G|------------------------|-----------------------|
D|------------------------|-----------------------|
A|-------7----5-----------|-------5---------------|x3
E|--0------------8--5--7--|--8---------8--7--5--7-|

    Q    Q    E  E  E  E     Q    Q    E  E  E  E   
G|------------------------|------------------------|
D|------------------------|------------------------|
A|-------7----5-----------|-------5----------------|
E|--0------------8--5--7--|--8---------8--7--5--3--|

Bridge (saxophone solo):

    E  H.           E     W                   W                   W                 
G|---------------------|-------------------|-------------------|-------------------|
D|---------------------|-------------------|-------------------|-------------------|
A|---------------------|-------------------|-------------------|-------------------|
E|--0------------------|-------------------|-------------------|-------------------|

    W                   W                   W                   W                 
G|-------------------|-------------------|-------------------|-------------------|
D|-------------------|-------------------|-------------------|-------------------|
A|-------------------|-------------------|-------------------|-------------------|
E|-------------------|-------------------|-------------------|-------------------|

Bridge:

   E  Q    E  E  E  E  E    E  Q    E  Q    Q      E  Q    E  E  E  E  E    E  Q    E  E  E  E  E  
G|------------------------|----------------------|------------------------|-----------------------|
D|------------------------|----------------------|------------------------|-----------------------|
A|---------7--5-----------|---------5------------|---------7--5-----------|---------5-----------5-|
E|-0-------------8--5--7--|-8----------8----7----|-0-------------8--5--7--|-8----------8--7--8----|

    E  Q    E  E  E  E  E    E  Q    E  Q    Q     E  Q    E  E  E  E  E    E  Q    E  E  E  E  E   
G|-------------------------|---------------------|------------------------|-----------------------|
D|-------------------------|---------------------|------------------------|-----------------------|
A|----------7--5-----------|---------5-----------|---------7--5-----------|---------5-------------|
E|--0-------------8--5--7--|-8----------8----7---|-0-------------8--5--7--|-8----------8--7--5--3-|

    E  Q    E  E  E  E  E    E  Q    E  Q    Q     E  Q    E  E  E  E  E    E  Q    E  E  E  E  E   
G|-------------------------|---------------------|------------------------|-----------------------|
D|-------------------------|---------------------|------------------------|-----------------------|
A|----------7--5-----------|---------5-----------|---------7--5-----------|---------5-----------5-|
E|--0-------------8--5--7--|-8----------8----7---|-0-------------8--5--7--|-8----------8--7--8----|

    E  Q    E  E  E  E  E    E  Q    E  Q    Q     E  Q    E  E  E  E  E    E  Q    E  E  E  E  E   
G|-------------------------|---------------------|------------------------|-----------------------|
D|-------------------------|---------------------|------------------------|-----------------------|
A|----------7--5-----------|---------5-----------|---------7--5-----------|---------5-------------|
E|--0-------------8--5--7--|-8----------8----7---|-0-------------8--5--7--|-8----------8--7--5--3-|

    E  H.           E     W                   W                   W                 
G|---------------------|-------------------|-------------------|-------------------|
D|---------------------|-------------------|-------------------|-------------------|
A|---------------------|-------------------|-------------------|-------------------|
E|--0------------------|-------------------|-------------------|-------------------|

    E  Q    E  E  E  E  E     E  Q    E  E  E  E  E   
G|-------------------------|-------------------------|
D|-------------------------|-------------------------|
A|----------7--5-----------|----------5--------------|
E|--0-------------8--5--7--|--8----------8--7--5--7--|

    E  Q    E  E  E  E  E     E  Q    E  Q    Q     
G|-------------------------|-----------------------|
D|-------------------------|-----------------------|
A|----------7--5-----------|----------5------------|
E|--0-------------8--5--7--|--8----------8----7----|

    E  Q    E  E  E  E  E     E  Q    E  E  E  E  E   
G|-------------------------|-------------------------|
D|-------------------------|-------------------------|
A|----------7--5-----------|----------5-----------5--|
E|--0-------------8--5--7--|--8----------8--7--8-----|

    E  Q    E  E  E  E  E     E  Q    E  E  E  E  E   
G|-------------------------|-------------------------|
D|-------------------------|-------------------------|
A|----------7--5-----------|----------5--------------|
E|--0-------------8--5--7--|--8----------8--7--5--3--|

    E  H.           E     W                   W                   W                 
G|---------------------|-------------------|-------------------|-------------------|
D|---------------------|-------------------|-------------------|-------------------|
A|---------------------|-------------------|-------------------|-------------------|
E|--0------------------|-------------------|-------------------|-------------------|

Saxophone solo:

  Q    Q    E  E  E  E    Q    Q    E  E  E  E    Q    Q    E  E  E  E    Q    Q    E  E  E  E
G|----------------------|-----------------------|-----------------------|---------------------|
D|----------------------|-----------------------|-----------------------|--------------5------|
A|-----7----5-----------|------5----------------|------7----5-----------|------5----7-----7--5|x3
E|0------------8--5--7--|-8---------8--7--5--7--|-0------------8--5--7--|-8-------------------|

    Q    Q    E  E  E  E     Q    Q    E  E  E  E     Q    Q    E  E  E  E     Q    Q    Q    Q     
G|------------------------|------------------------|------------------------|----------------------|
D|------------------------|------------------------|------------------------|-----------------5----|
A|-------7----5-----------|-------5----------------|-------7----5-----------|-------5----7---------|
E|--0------------8--5--7--|--8---------8--7--5--7--|--0------------8--5--7--|--8-------------------|

Outro:

    E  H.           E     W                   E  H.           E     W                 
G|---------------------|-------------------|---------------------|-------------------|
D|---------------------|-------------------|---------------------|-------------------|
A|---------------------|-------------------|---------------------|-------------------|
E|--0------------------|-------------------|--0------------------|-------------------|

    E  H.           E     W                   E  H.           E     E    
G|---------------------|-------------------|---------------------|-----||
D|---------------------|-------------------|---------------------|-----||
A|---------------------|-------------------|---------------------|-----||
E|--0------------------|-------------------|--0------------------|-----||

===============================================================================
Notes: 

I did the bassline in Guitar Pro 5, so if You want the .gp5 file, just mail me!

Where You see duration for a note, but there's no note in the tab that means a
rest.

If You have problems with this tab, write Me a mail what's wrong with it
instead of giving it a bad rating! It'd be better for everyone! Thx!

Duration Legend	       
---------------	       
W - whole	       
H - half	       
Q - quarter	       
E - 8th		       
S - 16th	       
T - 32nd	       
X - 64th	       
. - note dotted	       
|-n-|  - n-tuplets     
		       
Tablature Legend		       
----------------		       
L - tied note		       
x - dead note		       
g - grace note		       
(n) - ghost note		       
> - accentuded note		       
NH - natural harmonic		       
AH - artificial harmonic		       
TH - tapped harmonic		       
SH - semi harmonic		       
PH - pitch harmonic		       
h - hammer on		       
p - pull off		       
b - bend		       
br - bendRelease		       
pb - preBend		       
pbr - preBendRelease		       
brb - bendReleaseBend		       
\n/ - tremolo bar dip		       
\n - tremolo bar dive		       
-/n - tremolo bar Release up		       
/n\ - tremolo bar inverted dip		       
/n - tremolo bar return		       
-\n - tremolo bar Release down		       
S - shift slide		       
s - legato slide		       
/ -  slide into from below or out of upwards
\ -  slide into from above or out of downwards
~ - vibrato
W - wide vibrato
tr - trill
TP - tremolo picking
T - tapping
S - slap
P - pop
< - fade in
^ - brush up
v - brush down
===============================================================================

            
            
Suggest correction
Creating personal tab
Creating personal tab
You can edit any tab online and save it as your Personal.

You can edit, replace or remove any tab part or add personal notes – all changes will be seen only by you.

Personal tabs can be accessed anytime from any device, even offline.
Learn more »
Give kudos to tab author, rate the tab!
1 2 3 4 5
comments
print report bad tab
guest
You may want to rate the tab now too:
select rating
Wanna post a correction for this tab? Suggest correction