Oops, an error
Loading. Please wait.

Mourning Into Dancing Bass Tab

11,975 views 30 this week
no commentswrite comment
1 2 3 4 5
excellent!
x 2
add to favorites
launch autoscroll
font size
0
reset
guitar tuner
Tab Pro tools
  • play this tab
  • loop segment
  • change instrument
  • show fretboard
  • metronome
Autoscroll
slow
fast
+/-
esc
set tempo
stop
i love the song very much...

MOURNING INTO DANCING
artist: Ron Kenoly
key: G

Intro:
G|---------12-9------------------9----------9----|
D|----9-12------10------------10---12-10-12---12-|
A|-10--------------12-10-9-12--------------------|
E|-----------------------------------------------|

G|---------12-9----|----13-14-16-17-16-14---------------|
D|----9-12------10-|-14-------------------16-17-17-1717-| 17 not 1 and 7..
A|-10--------------|-play this bar very fast.........---|
E|-----------------|------------------------------------|

Chorus:
G|-------------------------------------------------|
D|---------2-2--2----------------------------------|
A|-------2----------------77------99------1010-----|
E|-3--3-2----------2-3-55----5-77----7-88-----8-10-|

then...
G|----------|
D|----------|
A|------5---|
E|-3--3---3-|

then...
G|---------------------------------|
D|---------2-2--2------------------|
A|-------2--------------2--2-3-5---|
E|-3--3-2---------2-3-5----------3-|

Verse:
G|------------------------------|
D|----------2-5-----------------|
A|---2-5--3--------2-5--3-2-----| play 3x
E|-3-------------3----------5-2-|

then...
G|---------------------------------------------------------|
D|----------2-5---------3/5-55-53-33-32-22-21-11-1---------|its 5,3,2,1..
A|---2-5--3--------2-5-----------------------------555-5---|
E|-3-------------3---------------------------------------3-|

Bridge:
G|-----------------------------------------------------------|
D|--------5-7----------7-9------7h9-7------------------------|
A|----5-7----------7-9----------------7h9-7----------555-5---|
E|-3------------3------------5--------------7h9-7--5-------3-|

tabbed by: nikki d. pili
word international ministries- alabang, Philippines...
comments
We did not receive enough feedback on this tab! Please rate:
print report bad tab
1 2 3 4 5
I want to post or [tab]
guest
You may want to rate the tab now too:
select rating
Please do not post tabs as comments. Select "correction" instead!