Oops, an error
Loading. Please wait.

Please Come Home To Me Tab

2,686 views 1 this week
no commentswrite comment
1 2 3 4 5
please rate
add to favorites
launch autoscroll
font size
0
reset
how to read this tab
guitar tuner
Autoscroll
slow
fast
+/-
esc
set tempo
stop
Help us to improve Ultimate-Guitar.com Take our survey!
×
"Live in my living room"-version @youtube


Capo on first fret.

Intro: 
|---------|
|-----1---|
|-----0---|            4x
|---2---2-|
|-3-------|
|---------|


Vers/Chorus

      C       G       C       C       Am      F       C       G
|----------------------------------------------------------------
|-----1-------1-------1-------1-------1-------1-------1-------1--
|-----0-------0-------0-------0-------2-------2-------0-------0--
|---2---2---0---0---2---2---2-------2---2---3---3---2---2---0---0
|-3---------------3-------3-----3-0---------------3--------------
|---------3-------------------------------1---------------3------

       Am      F       C       G       C       G       C        2nd vers
-------------------------------------------------------------|------|
-------1-------1-------1-------1-------1-------1-------1-----|--1---|
-------2-------2-------0-------0-------0-------0-------0-----|--0---|
-----2---2---3---3---2---2---0---0---2---2---0---0---2---2---|2-----|
---0---------------3---------------3---------------3-------3-|----3-|
-----------1---------------3---------------3-----------------|------|



Bridge

       Am       G       F       C         Am      G       F       1st rep
|-------------------------------------------------------------|--------|
|-------1-------1-------1-----1---1-------1-------1-------1---|----1---|
|-------2-------0-------2-----0---0-------2-------0-------2---|----2---|
|-----2---2---0---0---3---3-------------2---2---0---0---3---3-|--3-----|
|---0-----------------------3---2-----0-----------------------|------3-|
|-----------3-------1-------------------------3-------1-------|1-------|


And then another vers
Suggest correction
Give kudos to tab author, rate the tab!
1 2 3 4 5
comments
print report bad tab
guest
You may want to rate the tab now too:
select rating
Please do not post tabs as comments. Select "correction" instead!