Oops, an error
Loading. Please wait.

Gold In Them Hills tab

version 1
version 1

Whole song

Interactive

265 views 6 this week
no commentswrite comment
1 2 3 4 5
3 more votes to show rating
add to favorites
×
Save as Personal and add changes to this tab that will be seen only by you. Learn more ›
×
You can save this tab as Personal to edit and correct it or add notes. All changes will be seen only by you. Learn more »
launch autoscroll
font size
0
reset
how to read this tab
guitar tuner
edit
Autoscroll
slow
fast
+/-
esc
set tempo
stop
-------------------------------------------------------------------------------
                             Gold in them hills - Ron Sexsmith
-------------------------------------------------------------------------------
Tabbed by:majorseventh
E-mail:cwarner3000@gmail.com

Listen to my guitar pro version for the timing. Tab is based off both the recorded version and
the live versions you can listen to and watch on youtube:
https://www.youtube.com/watch?v=79eNyWgQywo
https://www.youtube.com/watch?v=LCMQhWD6C0E


Tuning:Standard EADGBe 

Capo 2nd fret

Intro
    C            F6    G    C            F6  Gsus4 G
e|------3p1-0------0-----0------3p1-0------0---------------------------------|
B|--1---------1--3---1-3----1---------1--3---1-1-0---------------------------|
G|--0------------2-----0----0-0----------2-----0-0---------------------------|
D|--2-------2----3-------0----2-----2----3-----------------------------------|
A|----3-3-------------------3---3--------------------------------------------|
E|---------------1-----3-----------------1-----3-3---------------------------|
 
Verse 1
    C            F          C          F   Am
e|---------------------------------------------------------------------------|
B|--1-----------------------------------------1------------------------------|
G|--0-------0----0-----0----------------0---2--------------------------------|
D|--2-----0h2------3-3---3p2-----0h2------3---2------------------------------|
A|----3-3-----3----3-3-------3-3-----3------0--------------------------------|
E|---------------1----------------------1------------------------------------|
"I know it doesn't seem that way, But maybe it's the perfect day" 


    Dm              G        Dm               F    G   
e|---------------------------------------------------------------------------|
B|--3--------0-1----1-0----------------0-1----1-0--0-------------------------|
G|----2----2-----2------2-0--2---2---2-----2--2----0---2p0-------------------|
D|--0---3----------------------0---3----------3------------------------------|
A|---------------------------5---5-------------------------------------------|
E|------------------3---3---------------------1----3-------------------------|
"Even though the bills are piling, And maybe Lady Luck ain't smiling" 

    C            F6  Gsus4 G
e|------3p1-0------0---------------------------------------------------------|
B|------------1--3---1-1--0--------------------------------------------------|
G|--0------------2-----0--0--------------------------------------------------|
D|--2-------2----3-----------------------------------------------------------|
A|----3-3--------------------------------------------------------------------|
E|---------------1-----3--3--------------------------------------------------|

Verse 2
    C            F          C          F   Am
e|---------------------------------------------------------------------------|
B|--1-----------------------------------------1------------------------------|
G|--0-------0----0-----0----------------0---2--------------------------------|
D|--2-----0h2------3-3---3p2-----0h2------3---2------------------------------|
A|----3-3-----3----3-3-------3-3-----3------0--------------------------------|
E|---------------1----------------------1------------------------------------|
"But if we'd only open our eyes, We'd see the blessings in disguise" 

    Dm              G        Dm               F    G   
e|---------------------------------------------------------------------------|
B|--3--------0-1----1-0----------------0-1----1-0--0-------------------------|
G|----2----2-----2------2-0--2---2---2-----2--2----0---2p0-------------------|
D|--0---3----------------------0---3----------3------------------------------|
A|---------------------------5---5-------------------------------------------|
E|------------------3---3---------------------1----3-------------------------|
"That all the rain clouds are fountains, Though our troubles seem like mountains"

    C            F6    G    C            F6  Gsus4 G
e|------3p1-0------0-----0------3p1-0------0---------------------------------|
B|--1---------1--3---1-3----1---------1--3---1-1-0---------------------------|
G|--0------------2-----0----0-0----------2-----0-0---------------------------|
D|--2-------2----3-------0----2-----2----3-----------------------------------|
A|----3-3-------------------3---3--------------------------------------------|
E|---------------1-----3-----------------1-----3-3---------------------------|
"There's gold in them hills, There's gold in them hills" 


    Am               G      Em      Am             G       G7
e|--0-------3p1-0--------3------3---0-------3p1-0------0---1--0--------------|
B|------1---------1--3------0-----------1----------3-------0-----------------|
G|----2---2------------0------0---0---2---2-----2----0---0-------------------|
D|------------------------------2--------------------------------------------|
A|--0-------0---0-------------------0-------0--------------------------------|
E|-------------------3---3--0----------------------3-------3-----------------|
"So don't lose heart, Give the day a chance to start" 


    C            F6    G    C            F6  Gsus4 G
e|------3p1-0------0-----0------3p1-0------0---------------------------------|
B|--1---------1--3---1-3----1---------1--3---1-1-0---------------------------|
G|--0------------2-----0----0-0----------2-----0-0---------------------------|
D|--2-------2----3-------0----2-----2----3-----------------------------------|
A|----3-3-------------------3---3--------------------------------------------|
E|---------------1-----3-----------------1-----3-3---------------------------|
 

Verse 3 (same tab as above)
C             F             
Every now and then life says 
C                         F     Am
Where do you think you're going so fast
Dm                    G        
We're apt to think it cruel but sometimes
Dm             F           G   
It's a case of cruel to be kind 


C            F6  Gsus4 G


Verse 4
C             F
And if we'd get up off our knees 
C                         F     Am
Why then we'd see the forest for the trees
Dm               G       
And we'd see the new sun rising
Dm       F               G   
Over the hills on the horizon 

Chorus
C       F6      G
There's gold in them hills
C       F6      Gsus4 G 
There's gold in them hills 
Am       G    Em
So don't lose faith 
Am         G      G7
Give the world a chance to say... 

    Em             Fmaj7          Em             Fmaj7     
e|--0-----0--------------0-----0--0-----0--------------0---------------------|
B|--------------0--1h3-------3----------------0--1h3-------3-1-3-------------|
G|------0-----0--------2---2----------0-----0--------2---2-------------------|
D|----2-----2------3----------------2-----2------3-----3-------3-------------|
A|---------------------------------------------------------------------------|
E|--0--------------1-------1------0--------------1---------------------------|
"A word or two, my friend, There's no telling how the day might end"

   Em              Am    G     F
e|--0---3-0------------------------------------------------------------------|
B|--------------0--1-----3-----1-----1---------------------------------------|
G|----0-------0----2-----0-----2-0---0h2-------------------------------------|
D|------2---2------2-----0-----3---3-3---------------------------------------|
A|-----------------0-----2-----3---3-3---------------------------------------|
E|--0--------------------3---------------------------------------------------|
"And we'll never know until we see" 


C       F6      G
There's gold in them hills
C       F6      Gsus4 G 
There's gold in them hills
Am  G         Em
So don't lose heart 
Am        G       G7
Give the day a chance to start 

C       F6      G
There's gold in them hills
C       F6        G        C
There's gold in them hills 





************************************

| /   slide up
| \   slide down
| h   hammer-on
| p   pull-off
| ~   vibrato
| +   harmonic
| x   Mute note
| b   Bend
| pb  Pre-bend
| br  Bend release
| pbr Pre-bend release
| brb Bend release bend

************************************


Suggest correction
Creating personal tab
Creating personal tab
You can edit any tab online and save it as your Personal.

You can edit, replace or remove any tab part or add personal notes – all changes will be seen only by you.

Personal tabs can be accessed anytime from any device, even offline.
Learn more »
Give kudos to tab author, rate the tab!
1 2 3 4 5
comments
print report bad tab
guest
You may want to rate the tab now too:
select rating
Wanna post a correction for this tab? Suggest correction