Oops, an error
Loading. Please wait.

If Tomorrow Never Comes Chords

version 2
version 2

Whole song

Interactive

180,746 views 264 this week
4 commentsread comments
1 2 3 4 5
excellent!
x 60
add to favorites
launch autoscroll
font size
0
reset
transpose
0
reset
display chords
guitar tuner
Autoscroll
slow
fast
+/-
esc
set tempo
stop
Help us to improve Ultimate-Guitar.com Take our survey!
×
Capo
3rd fret
Ronan Keating:  If Tommorow never comes


Capo on 3rd Fret
D/C/G


[Verse]

G                   Am D   C            D         C    G  C G
Sometimes late at night I lie awake and watch her sleeping
        D                 C
She's lost in peaceful dreams
       D                     C                G   C G               
So I turn out the light and lay there in the dark
                          Am  D
And a thought crosses my mind
                          C  G  C G
if I never wake in the morning
D               C
Would she ever doubt
     D           C               G  C G
The way I feel about her in my heart


[Chorus]

                   C                                 G     C G
If tommorow never comes, would she know how much I love her
                    D
Did I try in every way
    C             D         C             G  C G
to show her everyday, that she's my only one
                            C
If my time on earth were through
                            Em
She must face this world without me
                               C                        D
Is the love I gave her in the past, gonna be enough to last
       C            G   D C G   
if tommorow never comes


[Verse]

                                 Am D
Cause I've lost love once in my life
                            C    G  C G   
who never knew how much I loved her
        D                    C
Now I live with with those regrets
                 D                     C         G C G
and that those feelings for her were never revealed
                         Am  D
So I made a promise to myself
                            C       G C G
say each day how much she means to me
       D               C                       D    
and avoid that circumstance where there's no second chance
     C              G  D C G
to tell her how I feel


[Chorus]

                                C
(to tell that someone that you love
                          D
just what you're thinking of
                     G   D C G
if tommorow never comes) 
Suggest correction
comments
print report bad tab
4 comments total. Showing first comments.
-1 reply
Andreyx 1,453 wrote on February 2 2008, 01:27 pm

Song : If Tomorrow never comes
Artist : Ronan Keating
Tabbed : andreyx




Verse 1

Cm F D# D#



E|-----------3----------|-----------5-----------|--------3--------6-------|--------3-----------|
B|--------1---------
----|--------6--------------|-----4--------3----------|-----4--------3-----|
G|-----0----------------|-----5-----------
------|--3--------3-------------|--3--------3--------|
D|----------------------|--3--------------------|---------------
----------|--------------------|
A|--3-------------------|-----------------------|-------------------------|-----------
---------|
E|----------------------|-----------------------|-------------------------|--------------------|


F Cm F D# A# D# A#


--------5-----------3-----|--------5-----------3----|--------1-----------6----|--1-------------|
-----------6--------
---4--|-----------6-------------|-----3-----3-----4-------|--3-------------|
-----5--------------------|-----5---------
--3-------|--3-----------3----------|--3-------------|
--3--------------5--------|--3-----------1----------|-----------
--------------|--3-------------|
--------------3-----------|-------------------------|-------------------------|--1----
---------|
--------------------------|-------------------------|-------------------------|----------------|

And the
thought crosses my mind.......


--------10---11--10-----8--5----|
--------13----------------------|
------12------------------------|(Small Solo)
before Verse 2

--10--13------------------------|
--------------------------------|
--------------------------------|

Verse 2



Cm F A# F Cm


-----------3-----------|--------1------------|--1--------------1-----|--------5-----------3-----|
--------1----------
----|-----1---------------|--3--------------------|-----------6-----------4--|
-----0-----------------|----------------
-----|--3-----------3--------|-----5--------------------|
-----------------------|--3------------------|--3------------
--------|--3--------------5--------|
--3--------------------|---------------------|--1--------1-----------|------------
--3-----------|
-----------------------|---------------------|-----------------------|--------------------------|



F A#
D#
About her in
my heart.... (Small Solo 2) before Chorus


--------5----------6-----|--1--------------6-----|------------6--------------|--1--------------|
-------------4----
----6--|--3-----------4-----4--|------4--6-----6--7--------|--3--------------|
-----5----------3--------|--3--------3--
---------|---------------------------|--3--------------|
--3----------------------|--3--------------------|------------
---------------|--3--------------|
-------------------------|--1--------------------|---------------------------|--1---
-----------|
-------------------------|-----------------------|---------------------------|-----------------|

Chorus


D# A3 D# F A#


--3------3--3--1------|--3------3--3--1------|--1----1----1----3p--1--|
--4------4--4--3------|--4------4--4--1------
|--3----3----3-----------|
--3------3--3--3------|--3------3--3--2------|--3----3----3-----------|
--1------1--1--3---
---|--1------1--1--3------|--3----3----3-----------|
---------------1------|---------------3------|--1----1----1-------
----|
----------------------|---------------1------|------------------------|


D# F
C F


--3------3----3------|--1------1----0------|--1-----------------------|
--4------4----4------|--1------1----1------|-
-1----------4--4h--6-----|
--3------3----3------|--2------2----0------|--2-----------------------|
--1------1----1----
--|--3------3----2------|--3------3----------------|
---------------------|--3------3----3------|--3--------3----------
----|
---------------------|--1------1-----------|--1-----------------------|

That she's my only one.....


--------------------------------|
---------13--15--13-------------|
---------15-------------15--15--| (Small Solo
3 ) only by Chorus 1

--------------------------------|
--------------------------------|
--------------------------------|


D# G F D# D# A#


--3----3----3----1----|--3------------3--------|--3------3--3----1----|
--4----4----0----1----|--4------4--6-----1---
--|--4------4--4----3----|
--3----3----0----2----|--3------------------3--|--3------3--3----3----|
--1----1----0----3-
---|--1---------------------|--1---

0 reply
Rexona 10 wrote on February 28 2008, 08:41 am

learn how to spell tomorrow xP.

0 reply
Francis-313 10 wrote on November 14 2008, 05:08 pm

owned?

guest
You may want to rate the tab now too:
select rating
Please do not post tabs as comments. Select "correction" instead!