Oops, an error
Loading. Please wait.
We have Chord Pro version of When You Say Nothing At All.
It's the closest thing you can get to the original song and it has interactive parts. Check out the tab »
×
12,127 views 6 this week
no commentswrite comment
1 2 3 4 5
2 more votes to show rating
add to favorites
×
Save as Personal and add changes to this tab that will be seen only by you. Learn more ›
×
You can save this tab as Personal to edit and correct it or add notes. All changes will be seen only by you. Learn more »
launch autoscroll
font size
0
reset
guitar tuner
edit
Autoscroll
slow
fast
+/-
esc
set tempo
stop
Author
Difficulty
This is my first tab, but enjoy!!

 (Bass beginns after 33 sec.)Vers
G|-------------|---------------|---------------|-------------|
D|-------------|---------------|---------------|-------------|
A|1~-----------|3~-------------|-------3-------|1-----3------|
E|-------------|---------------|1--------------|-------------|
  Try as..

G|-------------|
D|-------------|
A|-3-----------|
E|-------------|

Chorus
G|-------------|---------------|---------------|-------------|
D|-------------|---------------|---------------|-------------|
A|------3------|1------3-------|-------3-------|1-----3------|
E|1------------|---------------|1--------------|-------------|
  The Smile..                   Truth In..
G|-------------|---------------|---------------|-------------|
D|-------------|---------------|---------------|-------------|
A|------3------|1------3-------|3--------------|5------------|
E|1------------|---------------|---------------|------0------|
  Touch Of..                    Fall...
G|-------------|---------------|---------------|-------------|
D|-------------|---------------|---------------|-------------|
A|1~-----------|3.-------------|-------3-------|1-----3------|
E|-------------|---------------|1--------------|-------------|
  You say..
G|---------------|-------------|
D|---------------|-------------|
A|-------3-------|1-----3------|
E|1--------------|-------------|


  Vers
G|-------------|---------------|---------------|-------------|
D|-------------|---------------|---------------|-------------|
A|------3------|1------3-------|-------3-------|1-----3------|
E|1------------|---------------|1--------------|-------------|
  All day..
G|-------------|---------------|---------------|-------------|
D|-------------|---------------|---------------|-------------|
A|------3------|1------3-------|-------3-------|1-----3------|
E|1------------|---------------|1--------------|-------------|
  But When..
G|-------------|---------------|---------------|-------------|
D|-------------|---------------|---------------|-------------|
A|1~-----------|3~-------------|-------3-------|1-----3------|
E|-------------|---------------|1--------------|-------------|
  Try As..                      What's been..
G|-------------|
D|-------------|
A|-3~----------|
E|-------------|

  Chorus
G|-------------|---------------|---------------|-------------|
D|-------------|---------------|---------------|-------------|
A|------3------|1------3-------|-------3-------|1-----3------|
E|1------------|---------------|1--------------|-------------|
  The Smile..                   Truth In..
G|-------------|---------------|---------------|-------------|
D|-------------|---------------|---------------|-------------|
A|------3------|1------3-------|3--------------|5------------|
E|1------------|---------------|---------------|------0------|
  Touch Of..                    Fall...
G|-------------|---------------|---------------|-------------|
D|-------------|---------------|---------------|-------------|
A|1~-----------|3.-------------|-------3-------|1-----3------|
E|-------------|---------------|1--------------|-------------|
  You say..
G|-------------|---------------|---------------|-------------|
D|-------------|---------------|---------------|-------------|
A|------3------|1------3-------|-------3-------|1-----3------|
E|1------------|---------------|1--------------|-------------|

G|-------------|---------------|---------------|-------------|
D|-------------|---------------|---------------|-------------|
A|------3------|1------3-------|-------3-------|1-----3------|
E|1------------|---------------|1--------------|-------------|

Chorus again
G|-------------|---------------|---------------|-------------|
D|-------------|---------------|---------------|-------------|
A|------3------|1------3-------|-------3-------|1-----3------|
E|1------------|---------------|1--------------|-------------|
  The Smile..                   Truth In..
G|-------------|---------------|---------------|-------------|
D|-------------|---------------|---------------|-------------|
A|-------------|---------------|---------------|-------------|
E|-------------|---------------|---------------|-------------|
  Touch Of..                    Fall...
G|-------------|---------------|---------------|-------------|
D|-------------|---------------|---------------|-------------|
A|-------------|---------------|---------------|-------------|
E|-------------|---------------|---------------|-------------|
  You say..


  Fade out
G|-------------|---------------|---------------|-------------|
D|-------------|---------------|---------------|-------------|
A|------3------|1------3-------|-------3-------|1-----3------|
E|1------------|---------------|1--------------|-------------|
  You Say its..


Something wrong: NTJ92@hotmail.com



            
            
Suggest correction
Creating personal tab
Creating personal tab
You can edit any tab online and save it as your Personal.

You can edit, replace or remove any tab part or add personal notes – all changes will be seen only by you.

Personal tabs can be accessed anytime from any device, even offline.
Learn more »
Give kudos to tab author, rate the tab!
1 2 3 4 5
comments
print report bad tab
guest
You may want to rate the tab now too:
select rating
Wanna post a correction for this tab? Suggest correction